Tablatura para Guitarra de Joan Manuel Serrat: Hoy puede ser un grán día
Conexión · Inscripción
Letras y Acordes
Pantalla Completa
Imprimir
Versión Texto
Añadir Favorito
Otras Versiones

Mostrar Diagramas
Desfile Automático
Manipular Acordes
Formato del Texto


Hoy puede ser un grán día(TAB)

Joan Manuel Serrat

calidad:
jser0781
AUTOR: Joan Manuel Serrat
ALBUM: En Transito (1981)
Enviado por Miguel
Tal vez lo mas complicado de esta motivante canción es el
requinto que se toca al principio pero yo aquí les envío
una versión digerida y además para tocarse con la guitarra.

Como recomendación es mas fácil tocar el principio del
requinto con los dedos en la posición completa de los
acordes G7 en el tercer trasto y despues D7 en el décimo
aunque solo se toquen las notas que señalo; así se pueden
 apoyar en la cejilla para poder hacer mas fácil el HAMMER.


   Requinto:



 e|-----3----3----3---7-5-3-2-0-------10-----10------10---12-10-8-7-7---
 B|-------------------------------------------------------12------7-7---
 G|--3h4--3h4--3h4---------------10h11---10h11---10h11------------------
 D|---------------------------------------------------------------------
 A|---------------------------------------------------------------------
 E|---------------------------------------------------------------------


               -3/7-7-7-7-7---10-10-10-10-10----10h12-10--------------|
               -3/7-7-7-7-7----7--7--7--7--7------------11h10---------|
               ----------------------------------------------12-9h12--|
               -------------------------------------------------------|
               -------------------------------------------------------|
               -------------------------------------------------------|

/ = SLIDE
h = HAMMER

 (fig. A)

G C Hoy puede ser un gran día,
D G plantéatelo así,
Bm aprovecharlo o que pase de largo,
C G depende en parte de ti.
C Dale el día libre a la experiencia
D G para comenzar,
Bm y recíbelo como si fuera
C G fiesta de guardar.
(fig.B)
B7 C No consientas que se esfume,
A7 asómate y consume
D7 la vida a granel.
C G Hoy puede ser un gran día,
C-D7 G duro con él. (REQUINTO) Hoy puede ser un gran día donde todo está por descubrir, [fig.A] si lo empleas como el último que te toca vivir. Saca de paseo a tus instintos y ventílalos al sol [fig.A] y no dosifiques los placeres;
SI puedes, derróchalos. Si la rutina te aplasta, dile que ya basta de mediocridad. [fig.B] Hoy puede ser un gran día date una oportunidad. (REQUINTO) Hoy puede ser un gran día imposible de recuperar, [fig.A] un ejemplar único, no lo dejes escapar. Que todo cuanto te rodea lo han puesto para ti. [fig.A] No lo mires desde la ventana y siéntate al festín. Pelea por lo que quieres y no desesperes si algo no anda bien. [fig.B] Hoy puede ser un gran día y mañana también. (REQUINTO)
Este fichero es trabajo propio de su transcriptor y representa su interpretación personal de la canción. El material contenido en esta página es
para exclusivo uso privado, por lo que se prohibe su reproducción o retransmisión, así como su uso para fines comerciales.

© LaCuerda.net · Aviso Legal · Privacidad