Acordes de Guitarra » J »Javier Solis » Se te olvida (Tab)

Se te olvida
Javier Solis

Letras, Acordes y Tabs para Guitarra, Bajo y Ukulele

  •          F#m
    se te olvida
             D7
    q me quieres 
                     E
    apesar de lo q dices
            C#7
    pues llevamos en el alma
      F#m          B7
    cicatrices imposibles 
          E
    de borrar.
    
          F#m
    Se olvida
              D7
    q hasta puedo hacerte mal
             E            C#7
    si me decido pues tu amor
                          F#m
    
  • INTRO: Gm7 E7 F D7  Gm7 C7 F F7 Bb Eb7 F D7 Gm7 C7  F*   Gm7 C7
    
    Gm7:     Eb7:
    
    E-3-     E-6
    B-3-     B-8
    G-3-     G-6
    D-3-     D-8
    A-5-     A-6
    E-3-     E-6
    
             Gm7
    se te olvida
             Eb7
    q me quieres
                     F
    apesar de lo q dices
            Eb          D7
    pues llevamos en el alma
      Gm7          C7
    
  • INTRO:      Gm7      G#dim7    Fmaj7     D9   Gm        C9   F   F7
        e/-1-0---1-0---0-1----------0-------0-----------------0--------------
        B/-----3-----3------------3---3-1-3-----1-3-1--- 1--3---1------------
        G/--------------------------------------------3--------------3-2-0--
        D/-------------------------------------------------------------------
        A/-------------------------------------------------------------------
        E/-------------------------------------------------------------------
    
          Bb      Eb7     F      Dm7    Gm7     C7   F     Gm7      C7
        e/--------------------------------------------------1------5-8------
        B/----------------------------------------------2h3------6----------
        G/-3-2-0-2-3----0-2-0---0-2------0-------0-------------7------------
        D/--------------------3--------3---3-2-3---2-3----------------------
        A/------------------------------------------------------------------
        E/------------------------------------------------------------------
    
    Gm7:     Eb7:
    
    E-3-     E-6
    B-3-     B-8
    
  • +
    ¡Colabora con nosotros!
    Envíanos tu versión de esta canción

Letra de Se te olvida
se te olvida
q me quieres
apesar de lo q dices
pues llevamos en el alma
cicatrices imposibles
de borrar.
Se olvida
q hasta puedo hacerte mal
si me decido pues tu amor
lo tengo muy comprometido
pero a fuerza no sera.
Y hoy resulta q no soy
de la estatura de tu vida
y al soñar otros amores
se te olvida q hay
un pacto entre los dos.
Por mi parte te devuelvo
tu promesa de adorarme
nisiquiera sientas pena por dejarme
q ese pacto no es con dios.
UNA VEZ EN LA LUNA AZUL, UNA VEZ EN LA VERDE TIERRA
UNA VEZ EN LA VIDA, ENCUENTRAS UAN CANCION COMO ESTA.




[Se te olvida chords][Se te olvida cifra]
© LaCuerda.net · aviso legal · privacidad · es · en · pt · contacto