Acordes de Guitarra » J »Juan Carlos Baglietto » El gigante (Tab)

El gigante
Juan Carlos Baglietto

Letras, Acordes y Tabs para Guitarra, Bajo y Ukulele

  • e--3-2-------------0-2-3-------|--0------------0---1-------------------------
    B---------------0---------3--3-|-----3---1--3------0--------------------------
    G------------0-----------------|-------------------0----4----2---------------
    D--2---------------------------|-------------------0-----------------------
    A--------3----------------2----|---------0---------2------------------------
    E------------------------------|-------------------3-----------------------
                             Bm7            Am7          G      
    
    e----------------3---------------|---0----------------1-----------------------
    B----------------2---------------|---1----------------0---0--1h0-1-3---1--0---
    G----------------3---4-----2-----|---0---0h2h0--------0--0--------------------
    D--2---2-4-5-----2---------------|---2---------2h0----0-----------------------
    A--2-----------------------------|---3----------------2------0-----2---0------
    E--0-----------------------------|--------------------3-------------------2---
       Em                                C                   G      
    
    e-----------|
    B-3--1---0--|
    G-----------|
    D-----------|X2
    
  • +
    ¡Colabora con nosotros!
    Envíanos tu versión de esta canción

Letra de El gigante
(Todo con arpegio)
Un gigante de ojos azules
amaba a una mujer pequeña
que su sueño era una casita
pequeña como para ella
que tuviera en su frente un jardín
un jardín con madreselvas.
[Repite intro 1 vez]
Un gigante de ojos azules
amaba a una mujer pequeña
que muy pronto ya se ha cansado
de tan desmesurada empresa
que no terminaba en jardines
jardines con madreselvas.
[Repite intro 1 vez]
Adios ojos azules, dijo,
Y con gracia muy voltereta
del brazo de un enano rico
entró en la casita pequeña
que en el frente tenía un jardín
un jardín con madreselvas.
[Repite intro 1 vez]
El gigante comprende ahora
que amores de tanta grandeza
no caben ni siquiera muertos
en esas casas de muñecas
que en el frente tienen jardines
jardines con madreselvas.




[El gigante chords][El gigante cifra]
© LaCuerda.net · aviso legal · privacidad · es · en · pt · contacto
DINAMICO