Tablatura para Guitarra de Izal: Asuntos Delicados
Conexión · Inscripción
Letras y Acordes
Pantalla Completa
Imprimir
Versión Texto
Añadir Favorito
Otras Versiones

Mostrar Diagramas
Desfile Automático
Manipular Acordes
Formato del Texto


Asuntos Delicados(TAB)

Izal

calidad:
izal0143
AUTOR: Izal
ALBUM: Agujeros de Gusano (2012)
Enviado por Javier
[/] Slide Up  () Slide Down  [h] Hammer On
[p] Pull Off  [b] Bend [r] Release [v] Vibrato

Stave 1:

E|-------------------------------------------------------
B|-------------------------------------------------------
G|-------------------------------------------------------
D|--6--6--8--6--4-----6--4-----6p4-----------4-----------
A|-----------------6--------6-------6--6--4-----6--4-----
E|-------------------------------------------------------

Stave 2:

E|-------------------------------------------------------
B|-------------------------------------------------------
G|-------------------------------------------------------
D|----------4--6/9--8-----6--6--8--6--4-----6--4-----6/8-
A|-6--4--6-------------7-----------------6--------6------
E|-------------------------------------------------------

Stave 3:

E|-----------------------------------
B|-----------------------------------
G|-----------------------------8--8--
D|--9--9--9--11--9--8--9p8--9--------
A|-----------------------------------
E|-----------------------------------
Este fichero es trabajo propio de su transcriptor y representa su interpretación personal de la canción. El material contenido en esta página es
para exclusivo uso privado, por lo que se prohibe su reproducción o retransmisión, así como su uso para fines comerciales.

© LaCuerda.net · Aviso Legal · Privacidad