Acordes de Guitarra » I »Iván Noble » Dejás la cara y te vas (Tab)

Dejás la cara y te vas
Iván Noble

  • Letra y Acordes
    MI           LA              MI    LA
    LE PEDI EL DIVORCIO A MI PRUDENCIA
    MI          LA           MI   LA
    DESCARTE CAPRICHOS DE VARON
          MI                  LA
    SUSPENDI LOS USOS DE MIS ABUSOS 
           MI    LA
    SIN RESERVAS
         MI                   LA           SI
    ARCHIVE TRASNOCHES DE POLIGAMIA PUNTO COM
    
         MI            LA        SI
    PERO VOS DEJAS LA CARA Y TE VAS
         MI            LA        SI
    PERO VOS DEJAS LA CARA Y TE VAS
    
    
    CONVENCI A MIS BESOS DE ESPERARTE
    
    LE CONTE A MIS DEDOS DE TU PIEL
    
  • Tablatura
    e.-------------------------------------------
    B.-------------------------------------------
    G.-------------------------------------------
    D.----6--4------7----------6-4-2-------------
    A.-/7-----7--4----4--6--/7-------4-----------
    E.---------------------------------55--7--99-
    
    Riff 1:
    
    e.---/7-7-7--7/5--------------------------------
    B.---------------7---9--7-7--5-5--4-5--5/7--5-5-
    G.----------------------------------------------
    D.----------------------------------------------
    A.----------------------------------------------
    E.----------------------------------------------
    
    Riff 2:
    
    e.--/9--12-12---11-12-12--------9--7-----------
    B.-----------------------12-12--------9--7/5-5-
    
  • +
    ¡Colabora con nosotros!
    Envíanos tu versión de esta canción

Letra de Dejás la cara y te vas
LE PEDI EL DIVORCIO A MI PRUDENCIA
DESCARTE CAPRICHOS DE VARON
SUSPENDI LOS USOS DE MIS ABUSOS
SIN RESERVAS
ARCHIVE TRASNOCHES DE POLIGAMIA PUNTO COM
PERO VOS DEJAS LA CARA Y TE VAS
PERO VOS DEJAS LA CARA Y TE VAS
CONVENCI A MIS BESOS DE ESPERARTE
LE CONTE A MIS DEDOS DE TU PIEL
Y MEZCLE EL PERFUME DE TU PIJAMA
CON PASTILLAS
LA VIGÉSIMA NOVENA VEZ QUE ME SUICIDE
VOS DEJAS LA CARA Y TE VAS
PERO VOS DEJAS LA CARA Y TE VAS
Y YO MIRANDO FIJO LA PORRA DE ESTE AMOR
DISCUTO CON LA NOCHE EL PRECIO
DE OLVIDARTE
VOS DEJAS LA CARA Y TE VAS
PERO VOS DEJAS LA CARA Y TE VAS
FUI TU TESTAFERRO EN LOS NAUFRAGIOS
CON MIS ENEMIGOS ME ABRACE
Y TE DI LA LLAVE DE LA CIUDAD DE MIS ANTOJOS
LA MAÑANA QUE NO TUVE
MAS NADA QUE PERDER
VOS DEJAS LA CARA Y TE VAS
(ME DEJAS TU CARA, ME DEJAS TU CARA Y TE VAS)
VOS ME DEJAS TU CARA EN BLANCO Y TE VAS



© LaCuerda.net · aviso legal · privacidad · contacto