Acordes de Guitarra » I »los Iracundos » Y la ciudad duerme (Tab)

Y la ciudad duerme
los Iracundos

  • Letra y Acordes
    MI - FA#m - MI - SI7
    
    
                      MI
           Tú ya no estás
    
                 FA#m   MI          FA#m
           y la ciudad  duerme.
    
                 MI
           Sin razón
    
                DO      SI7
           te espero aquí...
    
                 MI
           Es el fin,
    
                FA#m   MI           FA#m
           ¡qué dolor  siento!
    
  • Tablatura
    Esto es el solo de guitarra en la mitad de la canción [1:38]
    
    
    
    1 ---------------------------------------
    2 ---------------------------------------
    3 -----0-0h2--0----0-----0---------------
    4 -2-4-----------4----4-----2------------
    5 ---------------------------------------
    6 ---------------------------------------
    
    1 -------------0-------------------------
    2 ----------------1h3-1--0---------------
    3 -----0--0-0----------------------------
    4 -2-4-----------------------------------
    5 ---------------------------------------
    6 ---------------------------------------
    
    1 --3--0--3-----3-0-2-----2h3--0---2--0--
    2 ---------------------------------------
    3 ---------------------------------------
    4 ---------------------------------------
    5 ---------------------------------------
    6 ---------------------------------------
    
    1 --0-2-3---3-0-2--2h3--2---0------------
    2 ---------------------------------------
    3 ---------------------------------------
    4 ---------------------------------------
    5 ------
  • +
    ¡Colabora con nosotros!
    Envíanos tu versión de esta canción

Letra de Y la ciudad duerme
Tú ya no estás
y la ciudad duerme.
Sin razón
te espero aquí...
Es el fin,
¡qué dolor siento!
¡Oh Dios!...
sufrir... ¿por qué?...
Gritaré... gritaré
con fuerza...
Y el cielo se abri - rá...
Y del cielo vendrás como un ángel,
a cuidar de mí,
a cuidar de mí,
a cuidar de mí...
Ya no está
la mujer
de mis sueños.
Guardaré su
ramo de azahar.
Ya no está la chica
dueña de mi mundo,
de este mundo
lleno de dolor.
Gritaré... gritaré
con fuerza...
Y el cielo se abri - rá...
Y del cielo vendrás como un ángel,
a cuidar de mí,
a cuidar de mí,
a cuidar de mí...
Ya no está
la mujer
de mis sueños.
Guardaré su
ramo de azahar.
Ya no está la chica
dueña de mi mundo,
de este mundo
lleno…
lleno de dolo - or.
Esta canción va dedicada para José Luis Sandoval, mi papa,
gracias a el me gusta la música de Los Iracundos.
!saludos a la familia Sandoval Bolaños en Tulcán (Ecuador)
pronto subiré la parte del solo de guitarra!



© LaCuerda.net · aviso legal · privacidad · contacto