Tablatura para Bajo de los Iracundos: Puerto Montt
Conexión · Inscripción
Letras y Acordes
Pantalla Completa
Imprimir
Versión Texto
Añadir Favorito
Otras Versiones

Mostrar Diagramas
Desfile Automático
Formato del Texto


Puerto Montt(BAJ)

los Iracundos

calidad:
irac0424
AUTOR: Eduardo Franco, Chayito Valdéz
ALBUM: 12 Grandes Exitos
Enviado por mauricio
Esta cancion me re facina
y al momento de tocar aun mas
vivan las canciones del ayer
son las mejores

los bajos empiezan en
Abrazame y veras
E|--------|-------|----|----|----|----|
A|--5---3-|-3---5-|-5--|-5--|-5--|-75-|
D|---5-5--|--3-3--|--5-|--8-|--7-|----|
G|--------|-------|----|----|----|----|

Puerto montt...               puerto montt...
E|--------|-----|----|-----|----|-----|----|------|
A|-755-5--|--55-|--3-|-3---|-3--|--33-|--5-|-5----|
D|------5-|-5---|-5--|--55-|--3-|-3---|-3--|--77--|
G|--------|-----|----|-----|----|-----|----|------|

Me aleje de ti
E|-----|-----|----|-----|----|-----|-----------|
A|--5--|--55-|-5--|--77-|--5-|-5---|-----------|
D|---5-|-5---|--7-|-7---|-7--|--77-|-7----887--|
G|-----|-----|----|-----|----|-----|--7755-----|

y yo la deje
E|----|-----|----|-----|----|-----|----|------|
A|----|--55-|--3-|-3---|-3--|--33-|--5-|-5----|
D|--5-|-5---|-5--|--55-|--3-|-3---|-3--|--77--|
G|----|-----|----|-----|----|-----|----|------|

bajo el cielo
E|-----|-----|----|-----|----|-----|----|
A|--5--|--55-|-7--|--77-|--5-|-5---|-5--|
D|---5-|-5---|--7-|-7---|-7--|--77-|----|
G|-----|-----|----|-----|----|-----|----|

silencio sin piedad
E|-------|-------|----|----|----|----|
A|-----3-|-3---5-|-5--|-5--|-5--|-75-|
D|--5-5--|--3-3--|--5-|--8-|--7-|----|
G|-------|-------|----|----|----|----|

Puerto montt...               puerto montt...
E|--------|-----|----|-----|----|-----|----|------|
A|-755-5--|--55-|--3-|-3---|-3--|--33-|--5-|-5----|
D|------5-|-5---|-5--|--55-|--3-|-3---|-3--|--77--|
G|--------|-----|----|-----|----|-----|----|------|

Me aleje de ti
E|-----|-----|----|-----|----|-----|-----------|
A|--5--|--55-|-5--|--77-|--5-|-5---|-----------|
D|---5-|-5---|--7-|-7---|-7--|--77-|-7----887--|
G|-----|-----|----|-----|----|-----|--7755-----|

y yo la deje
E|----|-----|----|-----|----|-----|----|------|
A|----|--55-|--3-|-3---|-3--|--33-|--5-|-5----|
D|--5-|-5---|-5--|--55-|--3-|-3---|-3--|--77--|
G|----|-----|----|-----|----|-----|----|------|

bajo el cielo
E|-----|-----|----|-----|----|----------------|
A|--5--|--55-|-7--|--77-|--5-|-5555555555555--|
D|---5-|-5---|--7-|-7---|-7--|----------------|
G|-----|-----|----|-----|----|----------------|

La la la
E|----|-----|----|-----|----|-----|----|------|
A|----|--55-|--3-|-3---|-3--|--33-|--5-|-5----|
D|--5-|-5---|-5--|--55-|--3-|-3---|-3--|--77--|
G|----|-----|----|-----|----|-----|----|------|

la la la
E|-----|-----|----|-----|----|-----|-----------|
A|--5--|--55-|-5--|--77-|--5-|-5---|-----------|
D|---5-|-5---|--7-|-7---|-7--|--77-|-7----887--|
G|-----|-----|----|-----|----|-----|--7755-----|

la la la
E|----|-----|----|-----|----|-----|----|------|
A|----|--55-|--3-|-3---|-3--|--33-|--5-|-5----|
D|--5-|-5---|-5--|--55-|--3-|-3---|-3--|--77--|
G|----|-----|----|-----|----|-----|----|------|

atte. miauricio gatolar
Este fichero es trabajo propio de su transcriptor y representa su interpretación personal de la canción. El material contenido en esta página es
para exclusivo uso privado, por lo que se prohibe su reproducción o retransmisión, así como su uso para fines comerciales.

© LaCuerda.net · Aviso Legal · Privacidad