Acordes de Guitarra » I »los Iracundos » Con la misma moneda (Tab)

Con la misma moneda
los Iracundos

Letras, Acordes y Tabs para Guitarra, Bajo y Ukulele

  • Em - A - Fm* - Bm - G - Fm -Bm
    
    
    Verso (la guitara va arpegiada)
    
         G          A                 Fm*
    Si ahora , tu vuelves , queriendo mi perdon 
          D                 Em          Fm*                 Bm
    No olvides , que ha mi corazon , dejaste sin tener compasion
        G         A              Fm*                D
    Recuerdo , reias , haciendome sufrir  , la noche 
              Em              Fm*            Bm  
    que yo te vi partir , la noche que yo crei morir 
    
     
    Coro
                   Em A                 Fm* D                   G Fm 
    Con la misma moneda , con la misma moneda , con la misma moneda 
                  Bm
    yo te lo pagare (repetir)
    
  • Em - A - F#m - Bm - Em - G - F#7 - Bm
    
    
    Verso (la guitara va arpegiada)
    
         Em  Gmaj7  A    A7           D         Dmaj7
    Si ahora , tu vuelves , queriendo mi perdon
         Bm    B9          Em     Em/D    F# F#7         Bm        B9
    No olvides , que ha mi corazon ,   dejaste sin tener compasion
    
    Recuerda , reias , haciendome sufrir  , la noche
    que yo te vi partir , la noche que yo crei morir
    
    
    Coro
                   Em A                 F#m Bm                  Em G F#7
    Con la misma moneda , con la misma moneda , con la misma moneda
                  Bm
    yo te lo pagare (repetir)
    
    
  • intro (PUNTEO en la guitarra)
    
    G|-------------------------------------------------------------
    D|-------------------------------------------------------------
    A|----5--5-4--4-5-------7--7-5----5-4-------------------2--2-2--
    E|---------------------------------------3---3-2---2-5--7--7-7---
    						 suenan = 	
    
    
    
    verso ( se repite )
    
    G|---------------------------------------------------------------------
    D|----4-4-(5)----------------------------------------------------------
    A|------------------------------------5-----------9-----------2-4--------
    E|----2-2-(3)-------5----5--2-----0-0-------0--------------7-----7-9-----
    
         suenan =						    suenan =	
    
    
    
    
    El verso 2 es igual al primero solo que se juega con la cuerda a aire entre
    cada nota escuchalo y date cuenta. 
    
    
    CORO Y PUNTEOS FINALES
    
    G|-------------------------------------------------------------
    D|-------------------------------------------------------------
    A|----5--5-4--4-5-------7--7-5----5-4---
  • +
    ¡Colabora con nosotros!
    Envíanos tu versión de esta canción

Letra de Con la misma moneda
Verso (la guitara va arpegiada)
Si ahora , tu vuelves , queriendo mi perdon
No olvides , que ha mi corazon , dejaste sin tener compasion
Recuerdo , reias , haciendome sufrir , la noche
que yo te vi partir , la noche que yo crei morir

Con la misma moneda , con la misma moneda , con la misma moneda
yo te lo pagare (repetir)
Verso2 (arpegiado)
Ahora que sientes , lo que es el amor , que tienes
bien de frente al dolor , y lloras , y pides por favor
Recuerda , lo mucho , que yo sufri por ti, las cosas
que yo por ti perdi , lo poco que ayer quedo de mi
Con la misma....(X2)
punteo final (X1)
con la misma moneda....(X3)lalala...




[Con la misma moneda chords][Con la misma moneda cifra]
© LaCuerda.net · aviso legal · privacidad · es · en · pt · contacto