Tablatura para Guitarra de Hillsong United: Most High
Conexión · Inscripción
Letras y Acordes
Pantalla Completa
Imprimir
Versión Texto
Añadir Favorito
Otras Versiones

Mostrar Diagramas
Desfile Automático
Manipular Acordes
Formato del Texto


Hillsong United
Most High(TAB)
calidad:
huni0282
AUTOR: Reuben Morgan
ALBUM: Blessed (2002)
Enviado por Daniel
Intro & Verso
--------------------------------
-----7------6------4-----6------
---6------6------6-----6--------
-4------4------4-----4----------
--------------------------------
--------------------------------

----------------------------------
-----7------6------4--6b7r6-4---4-
---6------6------6------------6---
-4------4------4------------------
----------------------------------
----------------------------------


Pre-2nd Verso/Instrumental
------------------------9-11----------
----11-12-9-12-11----11------11h12p11-
-11---------------11------------------
--------------------------------------
--------------------------------------
--------------------------------------
Este fichero es trabajo propio de su transcriptor y representa su interpretación personal de la canción. El material contenido en esta página es
para exclusivo uso privado, por lo que se prohibe su reproducción o retransmisión, así como su uso para fines comerciales.
© LaCuerda.net · Aviso Legal · Privacidad