Tablatura para Bajo de Hillsong United: Me veniste a rescatar
Conexión · Inscripción
Letras y Acordes
Pantalla Completa
Imprimir
Versión Texto
Añadir Favorito
Otras Versiones

Mostrar Diagramas
Desfile Automático
Formato del Texto


Me veniste a rescatar(BAJ)

Hillsong United

calidad:
huni0074
AUTOR: Hillsong United  corregir
ALBUM: Unidos Permanecemos
Enviado por Allan
Aqui les mando esta tab espero que les sirva a todos...


Intro

G|-------------------------------------------------------------------|
D|-------------------------------------------------------------------|
A|-3-3-3-3-3-3-58-85-5-5-510-10---12-12-12-12-12-12-12-12--8-8-8-8-8-8-
  8-8-|
E|---------------------------------------------------------------------

G|--------------------------------------------------------------------|
D|--------------------------------------------------------------------|
A|-3-3-3-3-3-3-52-25-5-5-5/10-10-7-7-7-7-7-7-7-7-8-8-8-8-8-8-8-8-8--|
E|--------------------------------------------------------------------|

Verso

G|--------------------------------------------------------------------|
D|--------------------------------------------------------------------|
A|-3-3-3-3-3-3-3-3-10-10-10-10-10-10-10-10-0-0-0-0-0-0-0-0-8-8-8-8-8-8-
 -8-8-----|
E|--------------------------------------------------------------------|

G|--------------------------------------------------------------------|
D|--------------------------------------------------------------------|
A|-3-3-3-3-3-3-3-3-10-10-10-10-10-10-10-10-0-0-0-0-0-0-0-0------------|
E|---------------------------------------------------4-4-4-4-4-4--4-4-|



Coro 1

G|----------------------------------|
D|----------------------------------|
A|-(3)------------------------------|
E|----------------------------------|

Coro 2

G|-----------------------------------------------------------------|
D|-----------------------------------------------------------------|
A|-3-3-3-3-3-3-3-3-2-2-2-2-2-2-2-2-0-0-0-0-0-0-0-0-----------------|
E|-------------------------------------------------1-1-1-1-1-1-1-1-|

Puente
3:01 –Esto se hace hasta el minuto 4:11
G|--------------------------------------------------------------------|
D|--------------------------------------------------------------------|
A|-0-0-0-0-0-0-0-0-0-0-0-0-0-0-2-2-3-3-3-3-3-3-3-3-3-3-3-3-3-3-2-2----|
E|--------------------------------------------------------------------|

G|--------------------------------------------------------------------|
D|--------------------------------------------------------------------|
A|-0-0-0-0-0-0-0-0-0-0-0-0-10-10-7-7-8-8-8-8-8-8-8-8-8-8-8-8-8-8-7-10-|
E|--------------------------------------------------------------------|



Luego en el minuto 4:11
Se hace 3 veces
G|------------|-----|---------------------------------------
D|------------|-----|--------------------------------------
A|-0-0-7/107-|-2-2-|-3---3/53-3-3-10----3---3/53-3-10--3/72-
E|------------|-----|---3--------------8---3-----------------

Luego
G|------------|-----|----------------------------------------
D|------------|-----|----------------------------------------
A|-0-0-7/107-|-----|-------------3-3-8-8-8-8-8-8-------------
E|------------|-3-0-|-1-1-1-1-1-1-----------------10-11-------

G|------------|-----|---------------------------------------
D|------------|-----|--------------------------------------
A|-0-0-7/107-|-2-2-|-3---3/53-3-3-10----3---3/53-3-10--3/72-
E|------------|-----|---3--------------8---3-----------------

G|------------|-----|---------
D|------------|-----|---------
A|-0-0-7/107-|-----|---------
E|------------|-3-0-|-(1)-----

El parentesis es que al tocar la nota se mantenga presionada
Este fichero es trabajo propio de su transcriptor y representa su interpretación personal de la canción. El material contenido en esta página es
para exclusivo uso privado, por lo que se prohibe su reproducción o retransmisión, así como su uso para fines comerciales.

© LaCuerda.net · Aviso Legal · Privacidad