Tablatura para Bajo de Hillsong United: Lead me to the cross
Conexión · Inscripción
Letras y Acordes
Pantalla Completa
Imprimir
Versión Texto
Añadir Favorito
Otras Versiones

Mostrar Diagramas
Desfile Automático
Formato del Texto


Lead me to the cross(BAJ)

Hillsong United

calidad:
huni1822
AUTOR: Hillsong United  corregir
ALBUM: All of the Above (2007)
Enviado por Daniel
Inicia Con Guitarra Electrica:
G)-----------------------------
D)-----------------------------
A)-2-2--2----------------5-5-4-
E)-----2-------3-3--3---5------
B)-----------------3-----------

G)-------------------------------
D)-------------------------------
A)-2-2--2---0-0-----------5-5-4--
E)-----2----------3-3--3---------
B)--------------------3----------

Verso:
G)----------------------------
D)----------------------------
A)-2-2--2---2-2---------------
E)-----2----------5-5--5--5-5-
B)--------------------5-------(tocamos un E para
                                 caer al traste5)

G)----------------------------------
D)--------------5--3----------------
A)------------5------5-5--5--7--2-2-
E)-3-3--3--3------------5-----------
B)-----3----------------------------

G)-----------------------------
D)-----------------------------
A)-2-2--2---2-2-----------5s12-
E)-----2----------5-5--5-------
B)--------------------5--------(lo mismo tocamos E)

G)-----------------------------------
D)--------------5--------------------
A)------------5------5-5--5---3-3--3-
E)-3-3--3--3------------5---------5--
B)-----3-----------------------------

Pre-Coro:
G)--------------------------------------
D)--------------------------------------
A)-7-5--------0-0-0-0---------------s10-
E)-----7-3-0------------7--5--3-3-3-3---
B)--------------------------------------

Coro 1:
G)-----------------------------
D)-----------------------------
A)------------5-5-5-5----------   x3
E)-3-3-3-5-7----------5-5-5-5--
B)-----------------------------

G)----------------------------------------
D)----------------------------------------
A)-7-5------------------------------------
E)-----7-3-0-0-0-0--3-3-3-3-5-5-5-5-------
B)--------------------------------------0-

Puente: Comenzamos en "Your Cross"
G)-------------------------------------------
D)-------------------------------------------
A)-17--10--12---5-5-5-5----------------------
E)--------------------------3-3-3-3--5-5-5-5-
B)-------------------------------------------

Coro 2:
G)----------------------------
D)----------------------------
A)----------5-5-5-------------   x3
E)-3-3-3-3--------7-5-5-5-5---
B)----------------------------
Este fichero es trabajo propio de su transcriptor y representa su interpretación personal de la canción. El material contenido en esta página es
para exclusivo uso privado, por lo que se prohibe su reproducción o retransmisión, así como su uso para fines comerciales.

© LaCuerda.net · Aviso Legal · Privacidad