Tablatura para Guitarra de Héroes del Silencio: Z
Conexión · Inscripción
Letras y Acordes
Pantalla Completa
Imprimir
Versión Texto
Añadir Favorito
Otras Versiones

Mostrar Diagramas
Desfile Automático
Manipular Acordes
Formato del Texto


Héroes del Silencio
Z(TAB)
calidad:
hero0622
AUTOR: Heroes del Silencio
ALBUM: El Espiritu del Vino (1993)
Enviado por Lolo
|-------------|
|-------------|
|--------0----| x4
|----0h2---2--|
|---2---------|
|-0-----------|

|---------------|---------------|----------------------|
|---0-------1---|---------------|---0------------------|
|---------------|--------0------|-----2--0---0---------|
|--------2------|----0h2---2----|---0------4-0---------|
|-------0-------|---3-----------|----------------------|
|-----3---------|---------------|----------------------|


|---------------|---------------|----------------------|
|-------------0-|-------------1-|----------------------|
|-------0-------|--------0------|--------0-------------|
|----0h2---2----|----0h2---2----|-----0h2--2-----------|
|---------------|---------------|---3------------------|
|---3-----------|---3-----------|----------------------|

|---------------|---------------|----------------------|
|--0------------|-------------0-|--------------2-------|
|----2h4p2-2-0--|-------0-------|--------0-------------|
|--0------5--0--|----0h2---2----|-----0h2--0-----------|
|---------------|---------------|----------------------|
|---------------|---3-----------|---3------------------|

|---------------|---------------|-------0--------------|
|------------1--|---------------|-------3--------------|
|-------0-------|-------0-------|-------2--------------|
|----0h2--2-----|----0h2---2----|-------0--------------|
|--3------------|---3-----------|----------------------|
|---------------|---------------|----------------------|
                |______________x4______________________|

se repite todo lo primero y el ultimo arreglo es asi¨:


|------------------------------------------------------|
|-3h5p3------------------------------------------------|
|------5-4-2h4p2p0----------------12A------------------|
|------------------2-0------------12A------------------|
|------------------------------------------------------|
|---------------------5h7p5-3-0-3----------------------|

la A en el ultimo arreglo es armonico natural
Este fichero es trabajo propio de su transcriptor y representa su interpretación personal de la canción. El material contenido en esta página es
para exclusivo uso privado, por lo que se prohibe su reproducción o retransmisión, así como su uso para fines comerciales.
© LaCuerda.net · Aviso Legal · Privacidad