Acordes de Guitarra » H »Hermana Glenda » Pide y se te dará (Tab)

Pide y se te dará
Hermana Glenda

Letras, Acordes y Tabs para Guitarra, Bajo y Ukulele

  •  G         D        C         D
    PIDE Y SE TE DARA, BUSCA Y ENCONTRARAS
      G           D
    LLAMA Y SE TE ABRIRA, 
            C                                          D
    PORQUE TODO AQUEL QUE PIDE, PORQUE TODO AQUEL QUE BUSCA
            C                  
    PORQUE TODO AQUEL QUE LLAMA,
               G  D  C  D           G  D  C  D         G  D        C  D
    SE LE AbRIRA__A__A,    ENCONTRARA__A__A,    RECIBIRA,   RECIBIRA, 
             G      D          C
    ENCONTRARA, UH,   ENCONTRARA.
    
    
    QUE PADRE DE ENTRE USTEDES, 
    SI SU HIJO LE PIDE PAN LE DA UNA PIEDRA
    PUES SI USTEDES QUE SON EGOISTAS 
    SABEN DAR COSAS BUENAS A SUS HIJOS
    CUANTO MAS DARA VUESTRO PADRE DEL CIELO 
    COSAS BUENAS A LOS QUE SE LO PIDAN.
    
  • e|--3------3-------2-------2-------2-------------0-------------0----------2-|
    B|-------3---3-----------3---3---3---3----1----1---1----3----1---1------3---|
    G|-----0-------0-------2-------2-------2-----0-------0-----0-------0--2-----|
    D|--------------------------------------------------------------------------|
    A|-----------------0----------------------3-------------3-------------------|
    E|--3-----------------------------------------------------------------------|
    
    e|--3------3-------2-------2-------2-------------0-------------0----------2-|
    B|-------3---3-----------3---3---3---3----1----1---1----3----1---1------3---|
    G|-----0-------0-------2-------2-------2-----0-------0-----0-------0--2-----|
    D|--------------------------------------------------------------------------|
    A|-----------------0----------------------3-------------3-------------------|
    E|--3-----------------------------------------------------------------------|
    
     SOL            RE     DO          RE
    Pide  y  se  te dará  busca  y  encontrará
     SOL           RE           DO
    Llama  y  se  te  abrirá  porque  todo  aquel  que  pide,
                                RE     DO
    Porque  todo  aquel  que  busca, porque  todo aquel  que llama... 
    
  • +
    ¡Colabora con nosotros!
    Envíanos tu versión de esta canción

Letra de Pide y se te dará
PIDE Y SE TE DARA, BUSCA Y ENCONTRARAS
LLAMA Y SE TE ABRIRA,
PORQUE TODO AQUEL QUE PIDE, PORQUE TODO AQUEL QUE BUSCA
PORQUE TODO AQUEL QUE LLAMA,
ENCONTRARA, UH, ENCONTRARA.
QUE PADRE DE ENTRE USTEDES,
SI SU HIJO LE PIDE PAN LE DA UNA PIEDRA
PUES SI USTEDES QUE SON EGOISTAS
SABEN DAR COSAS BUENAS A SUS HIJOS
CUANTO MAS DARA VUESTRO PADRE DEL CIELO
COSAS BUENAS A LOS QUE SE LO PIDAN.
PORQUE TODO AQUEL QUE PIDE, PORQUE TODO AQUEL QUE BUSCA,
PORQUE TODO AQUEL QUE LLAMA,
SE LE ABRIRA, ENCONTRARA, RECIBIRA, SI, RECIBIRA,
RECIBIRA, RECIBIRA.




[Pide y se te dará chords][Pide y se te dará cifra]
© LaCuerda.net · aviso legal · privacidad · es · en · pt · contacto
DINAMICO