Acordes de Guitarra » H »el Haragán y Compañía » Yo pensaba que (Tab)

Yo pensaba que
el Haragán y Compañía

Letras, Notas, Punteos, Tablaturas y Acordes de Guitarra (Tabs & Chords)

  • Letra y Acordes
      A                          Bm
     Yo pensaba que, todo era rodar y rodar
      C#m                        D   
     yo pensaba que, no se me hiba a acabar
      A               E
     yo pensaba que...
    
      A                          Bm
     Yo pensaba que, todo era jugar y jugar
      C#m                           D 
     yo pensaba que, no había que trabajar
      A                 E              D       A  E  
     para conseguir la felicidad, oh! ye! oh! ye!
    
        F#m                             C# 
     y hoy me doy cuenta que tenía muy poca edad
                D                          A 
     y que las cosas que realmente valen cuestan mas
                E                          F#m
     y que el tiempo que se pierde, no regresa ya.
    
  • Tablatura
         B----------------------------9---8-7-----9--10---------8---10---11---10---9-----10-
         G-----------------------------------------------8-9-10-----------------------------
         D----------------------------------------------------------------------------------
         A----------------------------------------------------------------------------------
         E----------------------------------------------------------------------------------
    
         e-------12-10--12--10--12-10--12--10-12-10-12-10-12-10-11-10-9-10---
         B---9---------------------------------------------------------------
         G-------------------------------------------------------------------
         D-------------------------------------------------------------------
         A-------------------------------------------------------------------
         E-------------------------------------------------------------------
    
    
          .e---9-9-9- 7-7-7-7-----------------------------------------------
           B--------------------9-9-9-9--7-7-7-7-------7---::8/7::----------
           G---------------------------------------8------------------------
           D----------------------------------------------------------------
           A----------------------------------------------------------------
           E----------------------------------------------------------------
    
  • Tablatura
    intro:
    
     1---------12-------------------------------------------------------------
     2---13br-------13--12---------------------------------14--14---12---12br-
     3----------------------14--11--------14-------14--16-------------14------
     4------------------------------14-------14h16----------------------------
     5------------------------------------------------------------------------
     6------------------------------------------------------------------------
    
     1---------19---16---17--16---16---14--12---14s16b------------------------
     2----------------------------------------------------19---19-------------
     3------------------------------------------------------------------------
     4----11------------------------------------------------------------------
     5------------------------------------------------------------------------
     6------------------------------------------------------------------------
    
     1------------------------------------------------------------------------
     2---19s17--17-
  • +
    ¡Colabora con nosotros!
    Envíanos tu versión de esta canción

Letra de Yo pensaba que
Yo pensaba que, todo era rodar y rodar
yo pensaba que, no se me hiba a acabar
yo pensaba que...
Yo pensaba que, todo era jugar y jugar
yo pensaba que, no había que trabajar
para conseguir la felicidad, oh! ye! oh! ye!
y hoy me doy cuenta que tenía muy poca edad
y que las cosas que realmente valen cuestan mas
y que el tiempo que se pierde, no regresa ya.
Yo pensaba que, todo era reir y gozar
yo pensaba que, todo era felicidad
yo pensaba que...
Yo pensaba que, todo era jugar y jugar
yo pensaba que, no había que trabajar
para conseguir la felicidad, oh! ye! oh! ye!
y hoy me doy cuenta que tenía muy poca edad
y que las cosas que realmente valen cuestan mas
y que el tiempo que se pierde, no regresa ya.
Yo pensaba que, todo era reir y gozar
yo pensaba que, todo era felicidad
yo pensaba que...
Yo pensaba que, todo era jugar y jugar
yo pensaba que, no había que trabajar
para conseguir la felicidad, oh! ye! oh! ye!
y hoy me doy cuenta que.......
Un saludo para la banda de Ciudad Neza!!



© LaCuerda.net · Aviso Legal · Privacidad