Acordes de Guitarra » G »Gustavo Pena "el Príncipe" » El orden de los sonidos (Tab)

El orden de los sonidos
Gustavo Pena "el Príncipe"

  • Tablatura
           Bm7                                    Am7/9
    |---------2--------------------------------------------0----
    |---------3--------------------------------------------1----
    |---------2----------------2-2---2----2-4-2------------4----
    |---------4---------0-2-4------4------------4-2-0-2----2----
    |--0-2----2----0-2-----------------------------------0-0----
    |-----------------------------------------------------------
    
    
    
                     Bm7
    |--------------------2----------------|
    |--------------------3----------------|
    |--------------------2----------------|
    |------0-2-4-2-0-----4----------------|
    |-0-2------------2---2----5-2-0-------|
    |-------------------------------2-----|
    
    
    
    
  • +
    ¡Colabora con nosotros!
    Envíanos tu versión de esta canción

Letra de El orden de los sonidos
ESTROFA
He ordenado los sonidos como el viento ordena...
Las hojas sobre las piedras que te lastiman los pies...
Tu camino pena-arena... que chorrea en tu rostro
REPITE INTRO X 2
REPITE ESTROFA
REPITE INTRO X 2 pero luego del Am7/9 engancha así...
ESTRIBILLO
Se guardarán tus tristezas en un gran libro de sal...
Se guardarán como agua en la niebla del canal...
Hasta que llegues a verme y ahí entre soles y estrellas...
A tu bondad que es enorme... y a tus internas bellezas...
Se guardarán tus tristezas en un gran libro de sal...
Se guardarán como agua en la niebla del canal...
Hasta que llegues a verme y ahí entre soles y estrellas...
A tu bondad que es enorme... y a tus internas bellezas...
Y a tu camino de invierno... se le entregará el final...
¡Gracias Príncipe!



© LaCuerda.net · aviso legal · privacidad · contacto