Tablatura para Guitarra de Guasones: La flaca Pili y el negro Tomás
Conexión · Inscripción
Letras y Acordes
Pantalla Completa
Imprimir
Versión Texto
Añadir Favorito
Otras Versiones

Mostrar Diagramas
Desfile Automático
Manipular Acordes
Formato del Texto


La flaca Pili y el negro Tomás(TAB)

Guasones

calidad:
guas0092
AUTOR: Soto-tedesco
ALBUM: desconocido
Enviado por Nacho
Base:
E----------------------------------------------------------
B----------------------------------------------------------
G------------7---7---4------------7---7---4---------6------
D------------7---7---5------------7---7---5----------------
A---5h7p5---------------5h7p5---------------5h7-----7--5---
E----------------------------------------------------------

E-----------------------------------------------
B-----------------------------------------------
G--7---7---4------------------------------------
D--7---7---5------------------------------------
A-----------------------------------------------
E-----------------------------------------------

Riff 1
E-------------------------------7-5------------------------
B----------------5-7---7-5---7-------8-7---7p5---5-7-5---5-
G---------4-6-7------------7-------------------7-------7---
D--4-5-7---------------------------------------------------
A----------------------------------------------------------
E----------------------------------------------------------

E-----------------------------------------------/
B-----------------------------------------------/
G--7(9)7---7---7---4----------------------------/
D----------7---7---5----------------------------/
A-----------------------------------------------/
E-----------------------------------------------/

Riff 2                   Riff 3
E----------------------/---------------/
B----------------------/----10-7-10-7--/
G-9(11)-9-7-9-7-9(11)-9/---------------/
D----------------------/---------------/
A----------------------/---------------/
E----------------------/---------------/
         Riff 4            Riff 5
E-------------------/-----------------------/
B-------------------/-----------------------/
G----9(11)-9-7------/----9(11)9-7-7(9)-7----/
D-------------------/-----------------------/
A-------------------/-----------------------/
E-------------------/-----------------------/

Riff 6                  Riff 7
E---------------------/------------------------/
B---------------------/------------------------/
G--7-9-9(11)-9-7-9-7--/----7p9--9--9(11)-------/
D---------------------/------------------------/
A---------------------/------------------------/
E---------------------/------------------------/

Base
Por las calles de la muerte, donde ya no hay más lugar,
Donde ni siquiera Moraliza se atreve nena a mirar.
Por las calles sin sentido, por las de la realidad,
Donde se conocieron, una noche como hoy, la flaca Pili y el negro Tomás

Riff 1

Base     Riff 4                            Riff 3
Ella le dijo, como acostumbrábamos decir,
                           Riff 6           Riff 5
Llévame a ver las estrellas, llévame a decir si si si si

Estribillo:
D G D C G Ha Ha Ha Ha La flaca Pili y el negro Tomás (2 veces) Base Riff 3 “De algún lado te conozco” entre dientes el negro sucio Riff 6 Susurro Riff 6 Y aunque todos rían lo que digo y sin sentido, todavía creo Riff 5 A simple vista en el amor Riff 6 No es de un chute que te tengo si de viaje recién vengo, se Riff 4 Riff 5 Que soy un soñador. Riff 3 Con respecto a tu propuesta no vaciles mi respuesta que es Riff 2 100% si si si si Estribillo Riff 7 Riff 6 Por las calles sin sentido, donde se que algunos pocos van Riff 3 Donde dios y el diablo se juntan tan a menudo a fumar, esa Riff 5 Bendita pipa de la paz. Riff 6 Riff 6 Por las calles de la muerte, por las de la realidad Riff 3 x2 Riff 4 Donde ni siquiera los molestos OH, se nena a molestar Base Con tinta china, el negro se tatuó, una frase, una Frase, que decía ohuhoh “Pili I love” eh! Termina con estribillo.
Este fichero es trabajo propio de su transcriptor y representa su interpretación personal de la canción. El material contenido en esta página es
para exclusivo uso privado, por lo que se prohibe su reproducción o retransmisión, así como su uso para fines comerciales.

© LaCuerda.net · Aviso Legal · Privacidad