Tablatura para Guitarra de Green Valley: Los Sueños
Conexión · Inscripción
Letras y Acordes
Pantalla Completa
Imprimir
Versión Texto
Añadir Favorito
Otras Versiones

Mostrar Diagramas
Desfile Automático
Manipular Acordes
Formato del Texto


Los Sueños(TAB)

Green Valley

calidad:
gvll0012
AUTOR: Green Valley  corregir
ALBUM: En tus Manos
Enviado por javier
                                 SUEÑOS - GREEN VALLEY
por Javier Ignacio Leiva
pedidos a : https://www.facebook.com/javierignaciobae

Disfrutadla

1ra Guitarra (intro)

|----------------------------------------------------------------|
|-8/10------------8-------------8/10------------8----------------|
|------9----9-------9----9-7-5-------9----9-------9----9-7-5-4-5-|
|--------10---5-5-----10---------------10---5-5-----10-----------|
|----------------------------------------------------------------|
|----------------------------------------------------------------|


2da Guitarra (intro)

|--------------------0------|
|-------0--------------0----|
|---5-----5------5----------|
|-7---7-----7--7---7------7-|
|---------------------------|
|---------------------------|

|--------------------0------|
|-------0--------------0----|
|---5-----5------5----------|
|-5---5-----5--5---5------5-|
|---------------------------|
|---------------------------|

|--------------------0------|
|-------0--------------0----|
|---5-----5------5----------|
|-7---7-----7--7---7------7-|
|---------------------------|
|---------------------------|

|--------------------0------|
|-------0--------------0----|
|---5-----5------5----------|
|---------------------------|
|-5---5-----5--5---5------5-|
|---------------------------|


2da guitarra estrofa

|-5-8--3-|
|-5-8--3-|
|-5-9--4-|
|-7-10-5-|
|-7-10-5-|
|-5-8--3-|



solo

|-7------------------------------------------|
|-10-10/8-10--------------------------10-----|
|-9----------9-5-7--9-10-9-7-9-10-9-7----9-7-|
|--------------------------------------------|
|--------------------------------------------|
|--------------------------------------------|

|--10/12-12-10-8/7-8------7---------7-|
|-----------------------8---8-----8---|
|---9/12-12-9--9/7-9--9-------9-9-----|
|-7-----------------------------------|
|-------------------------------------|
|-------------------------------------|

|----------------------7-7-------------------------------|
|-------------8---8-10-----8---8-----------8-8-----------|
|---------7-9---9------------9---9-7-5/4-5-----9/7-5/7-5-|
|-----7-9------------------------------------------------|
|-7-9----------------------------------------------------|
|--------------------------------------------------------|

|---------------------------------------------------|
|---------------------------------------------------|
|---------5-8/7--5---5------------------------------|
|-----5/7----------7---7-5--------------------------|
|-5/7----------------------7--3/5-5-3-5-3-5-5/7-----|
|-----------------------------------------------5-5-|
Este fichero es trabajo propio de su transcriptor y representa su interpretación personal de la canción. El material contenido en esta página es
para exclusivo uso privado, por lo que se prohibe su reproducción o retransmisión, así como su uso para fines comerciales.

© LaCuerda.net · Aviso Legal · Privacidad