Tablatura para Guitarra de Greeicy Rendón: Destino
Conexión · Inscripción
Letras y Acordes
Pantalla Completa
Imprimir
Versión Texto
Añadir Favorito
Otras Versiones

Mostrar Diagramas
Desfile Automático
Manipular Acordes
Formato del Texto


Destino(TAB)

Greeicy Rendón

calidad:
gree0041
AUTOR: Greeicy Rendón  corregir
ALBUM: desconocido (2019)
Enviado por Kevin
VERSIÓN: con Nacho, MELODÍA de la canción.

ESTROFAS (Greeicy):

Hace tanto tiempo que no estás
y no encuentro a nadie que me quiera
E|----------------------------------------|
B|-1-1-1-1-1-0---0-1----1-1-1-1-1-0-------|
G|-------------2------2-------------2-0---|
D|--------------------------------------2-|

Nadie me besó a tu manera
y ya no tengo ganas de buscar
E|----------------------------------------|
B|-1-1-1-1-1-0---0-0----------------1-0---|
G|-------------2------0-0-0-0-0-0-0-----2-|
D|----------------------------------------|


Yo seguí escuchando tu canción
la que te dediqué de primera
E|------------------------------------1-0-|
B|-1-1-1-1-1-0---0-1----1-1-1-1-1-1-1-----|
G|-------------2------2-------------------|
D|----------------------------------------|

pero es que para serte sincera
E|-0-0-0-0-0-0-0-0---|
B|-----------------3-|
G|-------------------|
D|-------------------|

PRECORO:

Greeicy]

Se me juntaron la suerte con las ganas de verte
E|-3-3-3-3-1-0-------------1-0---|
B|-------------1---1---1-1-----1-|
G|---------------2---2-----------|

y si te tengo de frente, no me digas que no
E|---------1-0------------0---|
B|-1---1-1-----1--1---1-1---3-|
G|---0--------------0---------|

Nacho]

Precisamente esta noche que no vine a buscarte
E|-----0-1-0---------------1-0---|
B|-1-3-------0-1---1---1-1-----1-|
G|---------------2---2-----------|

te apareces de frente, no me digas que no
E|---------1-0--------0-------|
B|-1---1-1-----1--1-3---3-1-3-|
G|---0------------------------|

CORO (Greeicy):
[
Pregúntale al destino, por qué nos enamoró
Pregúntale al camino, que por qué nos separó
E|---8-7-7-3-3-1-1-0-1-0-1-3-3--0-0-0-5-1-3-----------1-0---|
B|------------------------------------------1-1-1-1-1-----3-|
G|-5--------------------------------------------------------|

Tú sabes la respuesta, siempre he sido tuya,
y solamente, solamente tuya,
E|---8-7-7-3-3-1--1-0-1-3-3-3--0-0-1-0-1-0-1-3-3-3-|
B|-------------------------------------------------|
G|-5-----------------------------------------------|

y solamente, solamente tú y yo
E|-0-0-1-0-1-0-1---0---|
B|---------------1---3-|
G|---------------------|
]BIS

(ieh, ieeh... oh, oh...)

PUENTE (Nacho):
Te hice mía, mía, mía, solo mía,
cada noche, cada día,
el destino ya sabía que te tendría
E|-----------------------------------------------------------------------|
B|-----8/6-6/5-5/3--6-6-6/5----------6-6-6/5----------5-5-5/3--3-3-1-3-3-|
G|-5-7-----------------------5-5-5-5----------5-5-5-5--------------------|
[
aquí frente a frente,
bésame y me pongo demente,
E|---------1------1-1-1-1-1-0---0-----|
B|-1-1-1-1--------------------3-------|
G|-----------2p0------------------2p0-|

tú sabes que rico se siente,
el destino nos unió (y hasta pasó)
E|-0-0-0-0-0-----0-------------------------------|
B|-----------3-1------------1-1-1-1-0--(0-0------|
G|-----------------2p0--0-0-----------------2-0)-|
]BIS

PRECORO:

Nacho]

Se me juntaron la suerte con las ganas de verte
E|-3-3-3-3-1-0-------------1-0---|
B|-------------1---1---1-1-----1-|
G|---------------2---2-----------|

y si te tengo de frente, no me digas que no
E|---------1-0------------0---|
B|-1---1-1-----1--1---1-1---3-|
G|---0--------------0---------|

Greeicy]

Precisamente esta noche que no vine a buscarte
E|-3-3-3-3-1-0-------------1-0---|
B|-------------1---1---1-1-----1-|
G|---------------2---2-----------|

te apareces de frente, no me digas que no
E|---------1-0--------0-------|
B|-1---1-1-----1--1-3---3-1-3-|
G|---0------------------------|

-CORO (Greeicy)-

Greeicy. El destino nos unió.
E|-3--------------------|
B|---3--3-3-3-3-5-3-----|
G|------------------5/2-|
Este fichero es trabajo propio de su transcriptor y representa su interpretación personal de la canción. El material contenido en esta página es
para exclusivo uso privado, por lo que se prohibe su reproducción o retransmisión, así como su uso para fines comerciales.

© LaCuerda.net · Aviso Legal · Privacidad