Acordes de Guitarra » G »Gloria Stefan » No pretendo (Tab)

No pretendo
Gloria Stefan

Letras, Acordes y Tabs para Guitarra, Bajo y Ukulele

  •    Am
    No pretendo ser la gota
    
                      F
    que derrame tu silencio,
    
                        G
    ni pretendo ser la nota
    
                          Am
    que se escape en tu lamento.
    
    No pretendo ser la huella
    que se deja en tu camino,
    ni pretendo ser aquella
    que se cruza en tu destino.
    
                     C
    Sólo quiero descubrirme
    
    
  • Am Am7/G F Am/E Dm E7 (bajo F#-G#)
    Am Am7/G F Am/E Dm E7
    
                       Am
    No pretendo ser la gota
                       F
    Que derrama tu silencio
                    E7/G#
    Ni pretendo la nota que
                       Am
    Se escapa en tu lamento
    
                        Am
    No pretendo ser la huella
                         F
    Que se deja en tu camino
                      E7/G#
    Ni pretendo ser aquella
                          Am
    Que se cruza en tu destino
    
  •    Am                                 Dm            G#m/5                        
    E||---------------------------------------------------5--7----8--7--5--4--------|
    B||--3/5---------------------------8--6--------------------------------------5--|
    G||-----------4--5---------4--5---------------4--5------------------------7-----|
    D||--------7------------7------------------7------------------------------------|
    A||-----------------------------------------------------------------------------|
    E||-----------------------------------------------------------------------------|
                        Am                  G#m/5       Am                                
    -----------------------------------------------------------------------|
    --6---------------------------------------------------3/5--------------|
    -------5--7--5--4------------------------5-----7---------------4--5----|
    ---------------------7-----6-----9--------------------------7----------|
    ------------------------7-----7-----7-------7--------------------------|
    -----------------------------------------------------------------------|
                      Dm                            G#m/5               E               
    --------------------------------10--8----7-----------------------5--4--||
    -------------8--6---------------------------10--9--7-----5----6--------||
    -----4--5---------------4--5--------------------------7----------------||
    --7------------------7-------------------------------------------------||
    -----------------------------------------------------------------------||
    
  • +
    ¡Colabora con nosotros!
    Envíanos tu versión de esta canción

Letra de No pretendo
No pretendo ser la gota
que derrame tu silencio,
ni pretendo ser la nota
que se escape en tu lamento.
No pretendo ser la huella
que se deja en tu camino,
ni pretendo ser aquella
que se cruza en tu destino.
Sólo quiero descubrirme
tras la luz de tu sonrisa
ser el bálsamo que alivia
tus tristezas en la vida
.
Sólo quiero ser la calma
que se escurre en tus desvelos,
ser el sueño en que descansa
la razón de tus anhelos.
Simplemente, es el amor
cuando ha roto sus cadenas.
Para darte el corazón,
No pretendo ser tu dueña.
No pretendo ser la llama
donde enciendes tus pasiones,
ni pretendo ser la espada
que atraviese tus errores.
No pretendo ser el aire
que respiras en la noche,
ni pretendo ser la carne
que destila tus derroches.
Sólo quiero ser la mano
que se llene de quebranto,
ser un poco ese remanso
donde muere el desengaño.
Sólo quiero ser la estrella
que se engarza en tu mirada,
la caricia que se entrega
sin razón y sin palabras.
Simplemente, es el amor
que ha encontrado su camino.
Para darte mi ilusión,
no pretendo hacerte mío.
Simplemente, es el amor
cuando ha roto sus cadenas.
Para darte el corazón,
No pretendo ser tu dueña.
Sólo quiero ser la mano
que se llene de quebranto,
ser un poco ese remanso
donde muere el desengaño.
Sólo quiero ser la estrella
que se engarza en tu mirada,
la caricia que se entrega
sin razón y sin palabras.
Simplemente, es el amor
que ha encontrado su camino.
Para darte mi ilusión,
no pretendo hacerte mío.
Simplemente, es el amor
cuando ha roto sus cadenas.
Para darte el corazón,
No pretendo ser tu dueña.
Simplemente es el amor...




[No pretendo chords][No pretendo cifra]
© LaCuerda.net · aviso legal · privacidad · es · en · pt · contacto