Tablatura para Bajo de Gianluca Grignani: Mi Historia Entre Tus Dedos
Conexión · Inscripción
Letras y Acordes
Pantalla Completa
Imprimir
Versión Texto
Añadir Favorito
Otras Versiones

Mostrar Diagramas
Desfile Automático
Formato del Texto


Mi Historia Entre Tus Dedos(BAJ)

Gianluca Grignani

calidad:
gian0048
AUTOR: Gianluca Grignani
ALBUM: Destinazione Paradiso
Enviado por Luis
INTRO:

G-------------------------------------------------------------
D-------------------------------------------------------------
A-5-----------------------------------------------------------
E-----3---1---3-----------------------------------------------

CANTO:

G-------------------------------------------------------------
D-------------------------------------------------------------
A-5-------3--------------------------------------------------- x3
E-----3-------1-----------------------------------------------

G-------------------------------------------------------------
D-------------------------------------------------------------
A-5-------3---------------------------------------------------
E-----3-------1---3---1---------------------------------------


CORO:
G-------------------------------------------------------------
D-------------------------------------------------------------
A-/3---3------------------------------------------------------
E----------3---3---/6---5---1---3-----------------------------

G-------------------------------------------------------------
D-------------------------------------------------------------
A-/3---3-----------------------/7-----------------------------
E----------3---3---/6---5---1------5--------------------------
Este fichero es trabajo propio de su transcriptor y representa su interpretación personal de la canción. El material contenido en esta página es
para exclusivo uso privado, por lo que se prohibe su reproducción o retransmisión, así como su uso para fines comerciales.

© LaCuerda.net · Aviso Legal · Privacidad