Acordes de Guitarra » G »Gali Galeano » Miedo del olvido (Tab)

Miedo del olvido
Gali Galeano

  • Tablatura
        A     E       D       A   F#m  E7   Bm     D      A
    
    e --5-4-2-------------2-4-2--------------------2---------
    B --------5-----2-3-5-------5------5-3-2-3--------5-4-5--
    G ----------4-4------------------------------------------
    D -------------------------------------------------------
    A -------------------------------------------------------
    E -------------------------------------------------------
    
        A     E       D       A   F#m   E7   Bm    E D    A
    
    e --5-4-2-------------2-4-2--------------------4-2-------
    B --------5-----2-3-5-------5------5-3-2-3----------3-2--
    G ----------4-4------------------------------------------
    D -------------------------------------------------------
    A -------------------------------------------------------
    E -------------------------------------------------------
    
    
    
    
  • +
    ¡Colabora con nosotros!
    Envíanos tu versión de esta canción

Letra de Miedo del olvido
Si pienso en el tiempo que tengo sin verte
Me dan sentimientos deseando tenerte
Que triste quedo la tarde de un día
Cuando tu partida temblaba mi pecho
Yo al mirar tus ojos tu amor lo sentía
No ves que no puedo vivir del recuerdo
Del recuerdo de las cosas bellas,
Bellas que pasamos juntos los dos
ooh oho Ven que tengo miedo ven que tengo miedo
Miedo del olvido
A donde vallas yo te pido me recuerdes
Llévame en ti siempre mi amor
Hoy estoy solo y al dolor le tengo miedo
Regresa ya, ven por favor
Las noches son claras, los días son oscuros
Todo es invertido sino estoy con tigo
A pasado un tiempo de puro silencio
Parece que todo da paso al olvido
Yo no me arrepiento de haberte querido
Pero ven que puedo morir del recuerdo
Del recuerdo de las cosas bellas,
Bellas que pasamos juntos los dos
ooh oho Ven que tengo miedo ven que tengo miedo
Miedo del olvido
A donde vallas yo te pido me recuerdes
Llévame en ti siempre mi amor
Hoy estoy solo y al dolor le tengo miedo
Regresa ya, ven por favor
A donde vallas yo te pido me recuerdes
Llévame en ti siempre mi amor
Hoy estoy solo y al dolor le tengo miedo
Regresa ya, ven por favor
A donde vallas yo te pido me recuerdes
Llévame en ti siempre mi amor
Hoy estoy solo y al dolor le tengo miedo
Regresa ya, ven por favor



© LaCuerda.net · aviso legal · privacidad · contacto