Acordes de Guitarra » F »La Franela » Llega el trén (Tab)

Llega el trén
La Franela

  • Letra y Acordes
    Intro x 2:  E C#m
    
    E
    Hoy, igual que ayer
    estas sentado esperando que
       C#m
    llegue tu tren y en la estación
    sólo esta el chico de los diarios
         E
    y su radio no, no dice nada que quiera escuchar
       C#m
    tu corazón por eso vos,
    mirás al cielo y despues volvés
      E
    a tu reloj te preocupás,
    por el laburo que gracias a Dios
       C#m
    da de morfar y no está mal, pero sabés,
    que hay un número en La Nacional
            E
    
  • Letra y Acordes
    E   C#m
    
    E
    Hoy igual que ayer
                                  C#m
    Estas sentado esperando que llegue tu tren
    
    Y en la estacion
    
    Solo está el chico de los diarios
           E
    Y su radio no
    
    No dice nada que quiera escuchar
      C#m
    Tu corazon
    
    Por eso vos miras al cielo
                     E
    Y después volves a tu reloj
    
  • Tablatura
    INTRO (Con Slide), Sobre E - C#m
    
    1|-----------------------------9|-----7------------------7----------|
    2|------7-------10-9-10-9-10-9--|-7/9--9-10-10-10-9--7/9--9-10-10-10|
    3|--6/9--9--6/9-----------------|-----------------------------------|
    4|------------------------------|-----------------------------------|
    5|------------------------------|-----------------------------------|
    6|------------------------------|-----------------------------------|
    
    1|-----------------------------9|-12-9-----------9--12-9-----------9|
    2|------7-------10-9-10-9-10-9--|------12-9-12-9---------12-9-12-9--|
    3|--6/9--9--6/9-----------------|-----------------------------------|
    4|------------------------------|-----------------------------------|
    5|------------------------------|-----------------------------------|
    6|------------------------------|-----------------------------------|
    
    1|-12-9----------|
    2|------12-9-10-9|
    3|---------------|
    4|---------------|
    5|---------------|
    6|---------------|
    
    PUENTE
    
    1
  • +
    ¡Colabora con nosotros!
    Envíanos tu versión de esta canción

Letra de Llega el trén
Hoy, igual que ayer
estas sentado esperando que
llegue tu tren y en la estación
sólo esta el chico de los diarios
y su radio no, no dice nada que quiera escuchar
tu corazón por eso vos,
mirás al cielo y despues volvés
a tu reloj te preocupás,
por el laburo que gracias a Dios
da de morfar y no está mal, pero sabés,
que hay un número en La Nacional
la tentación no vaya a ser
ese trabajo y por gracia de dios
no vayas más y enloqueces
de tanto soñar
Y llega el tren...
En el vagón te despertás
los vendedores pregonando la oportunidad no tiene igual
el aire es denso y el fastidio se hace general
vos te rajas por ese libro que siempre llevás
para viajar cuando viajas
no puede ser la vida tan igual
¡Solidaridad! Grita el cieguito y ahi nomás,
vos te paras y le compras un numerito de La Nacional
la tentación no vaya a ser
ese trabajo por gracia de dios
no vayas mas y enloqueces
de tanto soñar
Y llega el tren...



© LaCuerda.net · aviso legal · privacidad · contacto
DINAMICO