Acordes de Guitarra » F »Franco de Vita » Fuera de este mundo (Tab)

Fuera de este mundo
Franco de Vita

Letras, Acordes y Tabs para Guitarra, Bajo y Ukulele

  • G            D             Em  
    Quien te puso en mi camino
              D
    Quien te dijo que
               C
    aun estaba vivo
          G       C         D
    Quien tuvo la brillante idea
    
    II.
    
    G      D             Em 
    Con un corazón que ardía
            D          C
    Por falta de compañía
         G       C        D
    Por tanta, tanta soledad
    
    PRE-CORO:
    
    
  • E -------------------------------0--------|
    B -----3--3----3--3-----3--3---------3----|
    G ----0--0----0--0-----0--0-----0---0-----|  X2
    D ---4--4----4--4-----4--4-----4---4------|
    A --3-------5-----------------------------|
    E ------------------0--------(0)----------|
       C       D      Em
    
    Versos
    este es el arpegio del primer verso. En los demás versos hace acordes.
    
    E ----------------------------------------------------------------0--------|
    B -----3--3----3--3----3--3----3--3-----3--3----3--3-----3--3---------3----|
    G ----0--0----0--0----0--0----0--0-----0--0----0--0-----0--0-----0---0-----|
    D ---4--4----4--4----4--4----4--4-----4--4----4--4-----4--4-----4---4------|
    A --3-------5---------------2--------3----------------5--------5-----------|
    E -----------------0-------------------------3-----------------------------|
       C        D     Em        Bm       C       G        D       D
    
    
    
  • E -----------------------------|--------------------0----------|
    B -----3----3-------3-----3----|-----3-----3-------------3-----|
    G ---0-----0-0----0------0-0---|---0------0-0-----0-----0-0----|
    D --0------------0-------------|--0--------------0-------------|
    A -----------------------------|-------------------------------|
    E -3------------3--------------|-3-------------3---------------|
    
    Luego sigue igual pero cambiando la secuencia de los bajos según el tono,
    hasta el coro donde comienza el rasgueo.
    
    
    I.
    
    G            D             Em
    Quien te puso en mi camino
              D
    Quien te dijo que
               C
    aun estaba vivo
          G       C         D
    
  • +
    ¡Colabora con nosotros!
    Envíanos tu versión de esta canción

Letra de Fuera de este mundo
Quien te puso en mi camino
Quien te dijo que
aun estaba vivo
Quien tuvo la brillante idea
II.
Con un corazón que ardía
Por falta de compañía
Por tanta, tanta soledad
PRE-CORO:
Y me dijo que también estaba sola
Y abrí mis brazos
Y así le entregue la vida
Y volamos, fuera de este mundo
Por un rato, me sentí seguro
Y libre como el pensamiento
Como para no volver
III.
Se nos fue la noche entera
Entre besos y quimeras
Debajo de una luna llena
IV.
Nos dijimos pocas cosas
Justo lo que nuestras bocas
Quedaban libres para hablar
PRE-CORO:
Y nos perdimos en la noche clara y negra
Y allí comprendí que vivir vale la pena
Y volamos, fuera de este mundo
Por un rato, me sentí seguro
Y libre como el pensamiento
Como para no volver
Y llegue a pensar que no
Era de este mundo
Tanto amor no se concibe
en un segundo
Y volamos, fuera de este mundo
Por un rato, me sentí seguro
Y libre como el pensamiento
Como para no volver




[Fuera de este mundo chords][Fuera de este mundo cifra]
© LaCuerda.net · aviso legal · privacidad · es · en · pt · contacto