Acordes de Guitarra » F »Fondo Flamenco » Intento (Tab)

Intento
Fondo Flamenco

Letras, Acordes y Tabs para Guitarra, Bajo y Ukulele

  •    Bm       F#       G       F#
    E|------------------------------------|
    B|----3-5------2-3--------2-------7---|
    G|---4--------3---------4-------9-----|
    D|--4--------4---------0---------7----|
    A|-2--------4---------2--------5------|
    e|-------------------3--------5-------|
    
       Bm       F#       G G G G  F#    Fm
    E|-------------------2----------------|
    B|----3-5------2-3---2----------------|
    G|---4--------3------0-----------3----|
    D|--4--------4-------0----------4-4-4-|
    A|-2--------4--------2---------4----4-|
    e|-------------------3--------2-----2-|
    
     ESTROFAS:
    (Acordes arpegiados)
    
        Bm
    
  • +
    ¡Colabora con nosotros!
    Envíanos tu versión de esta canción

Letra de Intento
ESTROFAS:
(Acordes arpegiados)
No puedo explicar qué pasó
No fue tuya la culpa,
fue de los dos,
por ser tan caprichosos.
Nos agarramos tan fuerte
que nos cansamos tan rápidamente.
Llegamos a un punto lejano y oscuro
y allí nos perdimos...
PRE-ESTRIBILLO:
Y todavía, ando buscando la salida de este laberinto.
Que alguien me de un mapa, porque me he perdido
y ya no sé cómo se camina, si no voy contigo.
ESTRIBILLO:
Intento volar, pero no llevo alas
se me quedaron tantas cosas en tu cama,
que siento que hasta el tiempo se me escapa.
Me cantan tus palabras en mis madrugadas
y el viento trae desde tu casa
esta melodía, que no acaba.
-INTERMEDIO-
Poco a poco, paso a paso...
nos fuimos alejando.
Como el agua se hace hielo,
nos congelamos.
No fuimos capaces de comportarnos
como seres humanos.
Fuimos salvajes y animales,
y hasta que nos matamos.
PRE-ESTRIBILLO:
Y todavía, sigo perdido en el desierto de tu cobardía
te lo dije, que si no lo intentas, no sabrías,
y si algún día funcionaría.
-ESTRIBILLO DOS VECES-




[Intento chords][Intento cifra]
© LaCuerda.net · aviso legal · privacidad · es · en · pt · contacto
DINAMICO