Tablatura para Guitarra de Fito Paez: Tema de Piluso
Conexión · Inscripción
Letras y Acordes
Pantalla Completa
Imprimir
Versión Texto
Añadir Favorito
Otras Versiones

Mostrar Diagramas
Desfile Automático
Manipular Acordes
Formato del Texto


Tema de Piluso(TAB)

Fito Paez

calidad:
fito0464
AUTOR: Fito Paez
ALBUM: Circo Beat (Beat Circus)
Enviado por Juan
Intro:
El teclado toca la melodia principal, las guitarras -hay una
acustica y una eléctrica, pero se puede tocar solo con eléctrica bien-
tocan un La (x02255) permanentemente.


* Estrofas:

     Cerca....          Rosario...estuvo....   ..cerca....
E||--5--------------0--|--2----0----5----4----|--5--------------0--|
B||--5------2----3-----|--3----3----5----5----|--5------2----3-----|
G||--2-----------------|--2----2----4----4----|--2-----------------|
D||--2-----------------|--0----0--------------|--2-----------------|
A||--0-----------------|----------------------|--0-----------------|
E||--------------------|----------------------|--------------------|


..vida... estuvo...     cer-ca   Ye-soes-ver  - dad
--2----0----5----4----|--5-----|----------0---|--0----------------||
--3----3----5----5----|--5--2--|--2h--3-------|--0----------------||
--2----2----4----4----|--2-----|--------------|--1----------------||
--0----0--------------|--2-----|--------------|--2----------------||
----------------------|--0-----|--------------|--2----------------||
----------------------|--------|--------------|--0----------------||


- Puente (la guitarra electrica hace una armonía de la melodía, pero
estos son los acordes básicos de acompañamiento):

F#m D E A F#m D E A* Y la vida como viene va / No hay merienda si no hay capitán * Este La es un Do en las partes en que el puente da a la parte lenta - Parte Lenta:
C Cmaj7 B7sus4 E Nada nos deja más en soledad
G G/F# Esus4 E que la alegría si se va-aaa
C Cmaj7 B7sus4 E Volar, volar, volar, volar, volaaaar
G G/F# Esus4 E E-Esus4-E7 como es Alberto volar al más allá Cuidado al final de la canción con las estrofas y el puente, que se 'saltan' algunos tiempos. Acordes: F#m = 244222 D = xx0232 E = 022100 Esus4= 022200 E7 = 020100 A = x02220 C = x32010 Cmaj7= x35450 B7su4= x24252 G = 320033 G/F# = 200230
Este fichero es trabajo propio de su transcriptor y representa su interpretación personal de la canción. El material contenido en esta página es
para exclusivo uso privado, por lo que se prohibe su reproducción o retransmisión, así como su uso para fines comerciales.

© LaCuerda.net · Aviso Legal · Privacidad