Tablatura para Bajo de Fito Paez: Tema de Piluso
Conexión · Inscripción
Letras y Acordes
Pantalla Completa
Imprimir
Versión Texto
Añadir Favorito
Otras Versiones

Mostrar Diagramas
Desfile Automático
Formato del Texto


Tema de Piluso(BAJ)

Fito Paez

calidad:
fito0463
AUTOR: Fito Paez
ALBUM: Circo Beat (Beat Circus)
Enviado por Alejandro
Intro

G-6-7-6---6-----------------
D-------9---7--------7------
A-------------77-7h9---9p7--
E---------------------------

G-6-7-6---6-----------------
D-------9---7--------7---9v-  (v es de vibrato)
A-------------77-7h9---9----
E---------------------------

G-6-7-6---6-6-7-6---6---6-7-6---6---
D-------9---------9---7-------9---7-
A-----------------------------------
E-----------------------------------

(Enganche chiquito)

G----------------------------
D-------7--------------------
A-7-7h9----------------------
E----------------------------

-6-7-6---6-----------------
D-------9---7--------7------
A-------------77-7h9---9p7--
E---------------------------

G-6-7-6---6-----------------
D-------9---7--------7---9v-  (v es de vibrato)
A-------------77-7h9---9----
E---------------------------

G-6-7-6---6-6-7-6---6---6-7-6---6---
D-------9---------9---7-------9---9-
A-----------------------------------
E-----------------------------------

Verso 'Cerca, Rosario siempre estuvo...'

G------------------------------------------------
D------------------------------------------------
A-0-0-2-4-5-4-2-0---0-0-2-4-5-4-2-0---0-5-6-7----
E-----------------4-----------------4---------0--

'Vida, tu vida fue una hermosa...'

G------------------------------------------------
D------------------------------------------------
A-0-0-2-4-5-4-2-0---0-0-2-4-5-4-2-0---0-5-6-7----
E-----------------4-----------------4---------0--

Estribillo 'Y la vida como viene va...'

G------------------------------
D-4---4-2-0--------------------
A---4-------4-2-0---2-4-5------
E-----------------4-------5----

'No hay merienda...'

G-2-0---------------------------
D-----4-2-0---------------------
A-----------4-2-0---------------
E-----------------4-2-0-2-3-4---

Verso 'Tanto, salimos por las calles...'

G------------------------------------------------
D------------------------------------------------
A-0-0-2-4-5-4-2-0---0-0-2-4-5-4-2-0---0-5-6-7----
E-----------------4-----------------4---------0--

'Y algo...'

G------------------------------------------------
D------------------------------------------------
A-0-0-2-4-5-4-2-0---0-0-2-4-5-4-2-0---0-5-6-7----
E-----------------4-----------------4---------0--

Estribillo 'Y la vida como viene va...'

G------------------------------
D-4---4-2-0--------------------
A---4-------4-2-0---2-4-5------
E-----------------4-------5----

'No hay merienda...'

G-2-0--------------------------
D-----4-2-0--------------------
A-----------4-2-0--------------
E-----------------4-2-0-2-3-4--

'Nada nos deja màs en soledad...'

G----8h9-7h9-7----------------------9-
D--------------10-9--10h12-12h14p12---
A-------------------------------------
E-(8)---------------------------------

'Volar, volar, volar...'

G----8h9-8h9-7----------------------9-
D--------------10-9--11h12-12h14p12---
A-------------------------------------
E-(8)---------------------------------

Verso 'Tira, la soga de tu cuello...'

G------------------------------------------------
D------------------------------------------------
A-0-0-2-4-5-4-2-0---0-0-2-4-5-4-2-0---0-5-6-7----
E-----------------4-----------------4---------0--

'Y eran, los tiempos de la primavera...'

G---------------------------------------------------
D---------------------24----------------------------
A-0-0-2-4-5-4-2-0---0----0-2-4-5-4-2-0---0-5-6-7----
E-----------------4--------------------4---------0--

Estribillo 'Y la vida como viene va...'

G------------------------------
D-4---4-2-0--------------------
A---4-------4-2-0---2-4-5------
E-----------------4-------5----

'No hay merienda...'

G-2-0--------------------------
D-----4-2-0--------------------
A-----------4-2-0--------------
E-----------------4-2-0-2-3-4--

'Nada nos deja màs en soledad...'

G----8h9-7h9-7----------------------9-
D--------------10-9--10h12-12h14p12---
A-------------------------------------
E-(8)---------------------------------

'Volar, volar, volar...'

G-------8h9-8h9-7----------------------9-
D--(10)-----------10-9--11h12-12h14p12---
A----------------------------------------
E----------------------------------------

Verso 'Cerca, Rosario siempre estuvo...'

G------------------------------------------------
D------------------------------------------------
A-0-0-2-4-5-4-2-0---0-0-2-4-5-4-2-0---0-5-6-7----
E-----------------4-----------------4---------0--

Estribillo 'Y la vida como viene va...'

G------------------------------
D-4---4-2-0--------------------
A---4-------4-2-0---2-4-5------
E-----------------4-------5----

'No hay merienda...'

G-2-0---------------------------
D-----4-2-0---------------------
A-----------4-2-0---------------
E-----------------4-2-0-2-3-4---

'No hay merienda sin no hay capitàn...'

G-2-0---------------------------
D-----4-2-0---------------------
A-----------4-2-0---------------
E-----------------4-2-0-2-3-4---

Final

G------------------------------
D-----------------------7------
A-00000-2-4-5-55-77-7h9---9p7--
E------------------------------

G------------------------------
D-----------------------7---9v-
A-00000-2-4-5-55-77-7h9---9----
E------------------------------

G--------------------------------------
D---------7----------------------------
A-00000-7---55555-5h7-00000-5h7-55555--
E--------------------------------------

G----------------------------------
D----------------------------------
A-----00000-55555h7-00000-55555h7--
E-3-4------------------------------

G--------------------------------------
D---------7----------------------------
A-00000-7---55555-------00000-0---2s5--
E-----------------2-3-4---------2------
Este fichero es trabajo propio de su transcriptor y representa su interpretación personal de la canción. El material contenido en esta página es
para exclusivo uso privado, por lo que se prohibe su reproducción o retransmisión, así como su uso para fines comerciales.

© LaCuerda.net · Aviso Legal · Privacidad