Tablatura para Bajo de Fito Paez: Sasha, Sissi y el Círculo de Baba
Conexión · Inscripción
Letras y Acordes
Pantalla Completa
Imprimir
Versión Texto
Añadir Favorito
Otras Versiones

Mostrar Diagramas
Desfile Automático
Formato del Texto


Sasha, Sissi y el Círculo de Baba(BAJ)

Fito Paez

calidad:
fito0423
AUTOR: Fito Paez
ALBUM: El Amor Despues del Amor (1992)
Enviado por Matias
(el bajo arranca cuando empieza a cantar)

        Sim               Sim
G|------------------|------------------|
D|------------------|------------------|X2
A|--2-2-----2-2-----|--2-2-----2-2-----|
E|------2-2-----2-2-|------2-2-----2-2-|

        Mim               Mim
G|------------------|------------------|
D|------------------|------------------|X2
A|----------2-2-----|----------2-2-----|
E|--0-0-2-2-----2-2-|--0-0-2-2-----2-2-|

        Fam               Fam
G|------------------|------------------|
D|------------------|------------------|X2
A|--4-4-----4-4-----|--4-4-----4-4-----|
E|------2-2-----2-2-|------2-2-----2-2-|

        Sim               Sim
G|------------------|------------------|
D|--------7-9-------|-------789--------|X2
A|------9-----------|-----79-----------| (esta parte varía
E|--7-7-------------|---77-------------| en toda la cancion,
                                          pero esta es mas o
                                          menos la base)
Estribillo
       Sol                 La
G|------------------|------------------|
D|------------------|------------------|
A|------------------|------------------|
E|--3-3----3-3------|--5-5----5-5------|

       Sim                 Sim
G|------------------|------------------|
D|--------7-9-------|-------789--------|X2
A|------9-----------|-----79-----------|
E|--7-7-------------|---77-------------|
Este fichero es trabajo propio de su transcriptor y representa su interpretación personal de la canción. El material contenido en esta página es
para exclusivo uso privado, por lo que se prohibe su reproducción o retransmisión, así como su uso para fines comerciales.

© LaCuerda.net · Aviso Legal · Privacidad