Tablatura para Guitarra de Fito Paez: la Rueda Mágica
Conexión · Inscripción
Letras y Acordes
Pantalla Completa
Imprimir
Versión Texto
Añadir Favorito
Otras Versiones

Mostrar Diagramas
Desfile Automático
Manipular Acordes
Formato del Texto


la Rueda Mágica(TAB)

Fito Paez

calidad:
fito0283
AUTOR: Charly García, Fito Paez
ALBUM: El Amor Despues del Amor (1992)
Enviado por caco
Fito Paez - Rueda Magica
Punteados

>----------------------------------------------------------
>----------------------------------------------------------
>----------------------------------------------------------
>----------------------------------------------------------
>------------2--4-----2/7--6--4--2--0-----0--2------2--4---
>--0----0--4-------2-------------------4---------4--------2


>--------------------------------------------------------------------
>--------------------------------------------------------------------
>--------------------------------------------------------------------
>--------------------------------------------------------------------
>--4/7--6--4--2--0-----0--2-----------------------------------2--4---
>-------------------4--------0-----0-0-0--2--0--2--2/4--0--4--------2


>--------------------------------------------------------------0-0-0-
>--------------------------------------------------------------0-0-0-
>--------------------------------------------------------------9-9-9-
>--------------------------------------------------------------9-9-9-
>--4/7--6--4--2--0-----0--2-----2--4-------4/7--6--7--9--7-----7-7-7-
>-------------------4--------4--------2------------------------0-0-0-


...La saque asi ... escucha bien el tema y seguro lo sacas. es facil
El unico drama que tengo es que no la se tocar con acordes....
Este fichero es trabajo propio de su transcriptor y representa su interpretación personal de la canción. El material contenido en esta página es
para exclusivo uso privado, por lo que se prohibe su reproducción o retransmisión, así como su uso para fines comerciales.

© LaCuerda.net · Aviso Legal · Privacidad