Tablatura para Bajo de Fito Paez: Dos días en la vida
Conexión · Inscripción
Letras y Acordes
Pantalla Completa
Imprimir
Versión Texto
Añadir Favorito
Otras Versiones

Mostrar Diagramas
Desfile Automático
Formato del Texto


Dos días en la vida(BAJ)

Fito Paez

calidad:
fito0193
AUTOR: Fito Paez
ALBUM: El Amor Despues del Amor (1992)
Enviado por Agustín
Bajista: Guillermo Vadalá

ACLARACIÓN:En ningún momento se toca en el traste 1, por lo tanto
cada 1 que aparezca, se refiere a 10, 11, 12, etc.

Verse:
|-----------------------------------------------------------
|-------------7-->5-5-35--5535-------------7-->5-5-35--5535-
|023—3-23--332------------------3-3-23--332-----------------
|-----------------------------------------------------------

|------------------9------------------------------------------------
|-<10-10-910--10109----------------10-10-910--1010910---------------
|---------------------7-7-57-7757----------------------5-5-35--5535-
|-------------------------------------------------------------------

|-----------------------------------------------------------
|-------------7-->5-5-35--5535-------------7-->5-5-35--5535-
|->3—3-23--332------------------3-3-23--332-----------------
|-----------------------------------------------------------

|------------------9-------------------------------------------------------
|-<10-10-910--10109---------------10-10-910--1010910-----------------------
|--------------------7-7-57-7757---------------------5-5-35-10<171717171717
|--------------------------------------------------------------------------

Bridge:
|---------------------------------------------------------------
|---------------9------9--10-10-910--99--12---------------------
|->8h10-10-810----1010-----------------10----10-10-810-1010810--
|---------------------------------------------------------------

|----------------------
|----------------------
|------77-9----7-99-10-
|-8-10------10---------

|--------------------------------------------------------------------------
|---------------------10-10-910--1010910----------------10-10-910--12121012
|8h10-10-810--8-77-8----------------------7-7-57--7757---------------------
|--------------------------------------------------------------------------

|-----------------------------------------------------
|-----------------------------1719--------------------
|-10<17~------10h12<17------19----17~------17ˆˇˆˇˆˇˆˇ-
|-----------------------------------------------------

Verse
(En el segundo Verse, en vez de empezar con LA SI DO, empieza con MI RE DO)

Bridge

|--------------------------------------------
|1010101010101010999999997777777755555555-<10  x4 (en la cuarta hace
|--------------------------------------------    slides up hacia cada nota)
|--------------------------------------------


< - SLIDE UP (barrido hacia adelante)
> - SLIDE DOWN (barrido hacia atrás)
ˆ - BEND UP (estirar la cuerda hacia arriba)
ˇ - BEND DOWN (estirar la cuerda hacia abajo)
h - HAMMER ON (ligado)
x - MUTE (apagar el sonido de la cuerda)
~ - LET RING (dejar que la cuerda suene)
Este fichero es trabajo propio de su transcriptor y representa su interpretación personal de la canción. El material contenido en esta página es
para exclusivo uso privado, por lo que se prohibe su reproducción o retransmisión, así como su uso para fines comerciales.

© LaCuerda.net · Aviso Legal · Privacidad