Tablatura de Estopa: Pesadilla
David y josé Muñoz Calvo
Allenrok [2008]
esta canción se la dedico a mi colega er pelo,
 porque la sacamos con guitarra entre los dos.

-----11--------------9--------------7-----------6---8---6---5---------
-11------12--11--9-------11--9--7-------9---6-------------------------
----------------------------------------------------------------------
----------------------------------------------------------------------
----------------------------------------------------------------------
----------------------------------------------------------------------


esta es la primera parte del punteo.

-------------10----------------------------8--------------------------
-10--10--10-------11--11--11--10--8--8--8-----10--10--10--8--6--6--6--
----------------------------------------------------------------------
----------------------------------------------------------------------
----------------------------------------------------------------------
----------------------------------------------------------------------



-6-------------5--5--7--5--4------------------------------------------
---8--8--8--5---------------------------------------------------------
----------------------------------------------------------------------
----------------------------------------------------------------------
----------------------------------------------------------------------
----------------------------------------------------------------------



Ambas partes del punteo se pueden realizar un traste más alto o un
traste más bajo, según la voz del cantante, pero realizando este
canbio de traste en las dos partes del punteo.
Este fichero es trabajo propio de su transcriptor y representa su interpretación personal de la canción. El material contenido en esta página es
para exclusivo uso privado, por lo que se prohibe su reproducción o retransmisión, así como su uso para fines comerciales.
© LaCuerda.net · aviso legal · privacidad · es · en · pt · contacto