Tablatura para Guitarra de Estopa: A mi me gusta
Conexión · Inscripción
Letras y Acordes
Pantalla Completa
Imprimir
Versión Texto
Añadir Favorito
Otras Versiones

Mostrar Diagramas
Desfile Automático
Manipular Acordes
Formato del Texto


A mi me gusta(TAB)

Estopa

calidad:
estp0802
AUTOR: Estopa
ALBUM: Voces de Ultrarumba (2005)
Enviado por Kevin
En realidad no son guitarras,
pero esta es una versión para ello.
Lo que falta es el ritmo con los acordes;
Los acordes ya los pusieron.
Espero que les guste!

A MI ME GUSTA - eSTOPa

INTRO>

OJO! - *A LA VEZ*

FONDO>
E[--------------------------------]
b[--------------------------------]
g[--------------------------------]
d[--------------------------------]
a[-0--0---0--0-2-3-2-0------------]
E[------3--------------3-1--1-0-d-]

*
FONDO> GUITARRA 2
e[--------------------------------]
b[--------------------------------]
g[--------------------------------]
d[--------------------------------]
a[-0--0---0--0-2-3-2-0------------]
E[------3--------------3-1--1-0-d-]

GUITARRA 1> VOZ> RA PA RA RA. RA RA VA RA, VA RA VA…
e[-------------------------]
b[-------------0-1-0-------]
g[-2--2-0-2--2-------2-0---]
d[-----------------------3-]
a[-------------------------]
E[-------------------------]
*

*
FONDO> GUITARRA 2
E[--------------------------------]
b[--------------------------------]
g[--------------------------------]
d[--------------------------------]
a[-0--0---0--0-2-3-2-0------------]
E[------3--------------3-1--1-0-d-]

GUITARRA 1> VOZ> RA PA RA RA. VA RA VA RA, VA RA VA…
e[-------------------------]
b[-------------0-1-0-------]
g[-2--2-0-2--2-------2-0---]
d[-----------------------3-]
a[-------------------------]
E[-------------------------]
*

SOUNDS>

[SOUND 1]
e[-12--------12-------------12-]
b[-13--------13-------------13-]
g[-14--------14-------------14-]
d[-----------------------------]
a[-----------------------------]
E[-----------------------------]
BIS

[SOUND 2]
e[-10--------10-------------10-]
b[-10--------10-------------10-]
g[-10--------10-------------10-]
d[-----------------------------]
a[-----------------------------]
E[-----------------------------]
BIS

[SOUND 3]
e[-10--------10-------------10-]
b[-12--------12-------------12-]
g[-12--------12-------------12-]
d[-----------------------------]
a[-----------------------------]
E[-----------------------------]
BIS

[SOUND 4]
e[--8---------8--------------8--]
b[--10--------10-------------10-]
g[--10--------10-------------10-]
d[------------------------------]
a[------------------------------]
E[------------------------------]
BIS

ESTROFAS>
A mí me gusta saborearte
Lo que yo quiero tú ya lo sabes
Tocarte el pelo, verte desnuda
La única luz, la luz de la luna

Porque al sol de tu cuerpo [SOUND 1]
Yo le tengo ganas [SOUND 2]
Que yo me pongo moreno [SOUND 1]
De aquí a mañana [SOUND 2]
De aquí a mañana [MEDIO SOUND 2]

Yo me estaré enredando [SOUND 4]
Entre tu tela de araña [SOUND 3]
Cierra tu ventana azul [SOUND 4]
Y mejor que no me digas nada [MEDIO SOUND 1]

Toma mis ilusiones [SOUND 1]
Ya no las quiero [SOUND 2]
Tengo otras intenciones [SOUND 1]
Tocarte el pelo [MEDIO SOUND 2]
Tocarte el alma
Con la misma yema de mis dedos
Que están perdiendo la calma

ESTRIBILLO>
Dame un poquito de beber
Beber el zumo de tu cuerpo
Hasta el amanecer
Beber, que te estoy esperando
Tu cuerpo de mujer
Dame un poquito de beber
Beber hasta el amanecer
Dame un poquito de beber
Dame un poquito de beber



ESTROFAS>
Quiero decirte [MEDIO SOUND 1]
Para convencerte [MEDIO SOUND 2]
Quiero ponerme [MEDIO SOUND 3]
Cerca para arroparte [SOUND 1]
Dame lo primero
Tus pertenencias [MEDIO SOUND 2]
De lo de después [MEDIO SOUND 3]
Se encarga la ciencia [SOUND 1]

Porque al son de tu cuerpo [MEDIO SOUND 1]
Mi mirada baila [SOUND 2]
Que te estoy cogiendo miedo [SOUND 1]
Dando ventaja [SOUND 2] [MEDIO SOUND 2]

Vete poniendo el traje de ilusión
Que yo me pongo el de hombre araña
Y me pongo cabezón
De aquí a mañana

ESTRIBILLO DE NUEVO

RITMO FINAL>
e[-8-8-8-8-10-8-----------8-------------]
b[--------------10-8-8-------10-8-10-10-]
g[----------------------7---------------]
d[--------------------------------------]
a[--------------------------------------]
E[--------------------------------------]
[4 VECES]

*
FONDO> GUITARRA 2
E[--------------------------------]
b[--------------------------------]
g[--------------------------------]
d[--------------------------------]
a[-0--0---0--0-2-3-2-0------------]
E[------3--------------3-1--1-0-d-]

GUITARRA 1> VOZ> RA PA RA RA. VA RA VA RA, VA RA VA…
e[-------------------------]
b[-------------0-1-0-------]
g[-2--2-0-2--2-------2-0---]
d[-----------------------3-]
a[-------------------------]
E[-------------------------]
*


FONDO> GUITARRA 2
E[--------------------------------]
b[--------------------------------]
g[--------------------------------]
d[--------------------------------]
a[-----0--------------------------]
E[-0------------------------------]

FIN!
Este fichero es trabajo propio de su transcriptor y representa su interpretación personal de la canción. El material contenido en esta página es
para exclusivo uso privado, por lo que se prohibe su reproducción o retransmisión, así como su uso para fines comerciales.

© LaCuerda.net · Aviso Legal · Privacidad