Tablatura para Guitarra de Estelares: Las vias del trén
Conexión · Inscripción
Letras y Acordes
Pantalla Completa
Imprimir
Versión Texto
Añadir Favorito
Otras Versiones

Mostrar Diagramas
Desfile Automático
Manipular Acordes
Formato del Texto


Las vias del trén(TAB)

Estelares

calidad:
este0243
AUTOR: Manuel Moretti
ALBUM: Sistema Nervioso Central (2006)
Enviado por pablo
hola saludos a todos los pibes de los toldos!!


antes de el punteo:


e/-0-0-0-0-0-0-2-0-0-2------------------      // lo repite dos veces
b/--------------------3-3-3-3-3-3-4-3-3-4     //




punteo:
e/---------7/9-10-9-7-4--------7/9-12/9-12/9-12/9
b/-7/9-7-------------------7/9----------------------
g/------6-4--------------------6-4------------------
d/--------------------------------------------------
a/--------------------------------------------------
e/-------------------------------------------------------
Este fichero es trabajo propio de su transcriptor y representa su interpretación personal de la canción. El material contenido en esta página es
para exclusivo uso privado, por lo que se prohibe su reproducción o retransmisión, así como su uso para fines comerciales.

© LaCuerda.net · Aviso Legal · Privacidad