Acordes de Guitarra » E »Eskorbuto » A la mierda el pais vasco (Tab)

A la mierda el pais vasco
Eskorbuto

Letras, Acordes y Tabs para Guitarra, Bajo y Ukulele

  •     D           C
    g:------------------------------
    d:----44-55-44----2-3-2---------
    a:--5-----------3-------33------
    e:------------------------------
    
    
          D  C
          Oh pueblo
              D              C
          Que bien te guarda tu hertzaina 
          D                   C
          Con sus normas, sus leyes, sus trampas
          D  C
          Oh pueblo 
    
                A#
                A LA mierda, A LA mierda
                F
                A la mierda el Pais Vasco 
    
  • intro:
    
    ------------------------|------------------------|------------------------|
    --3--1------------------|-----1--3-------1-------|-------4-------3--1-----|
    --------4----4----4--3--|--4----------------4----|--4------------------4--|
    ------------------------|------------------------|------------------------|
    
    ------------------------------|------------------|------------------------|
    --------1-----1-1-1-1-1-------|--1-1-1-1-1-------|--3--1------------------|
    --3--4------------------------|------------------|--------4----4----4--3--|
    ------------------------------|------------------|------------------------|
    
    
    ------------------------|---------------------|-------------------|
    -----1--3-------1-------|-------1-------------|-------------------|
    --4----------------4----|--4---------1--------|-------------------|
    ------------------------|---------------------|-------------------|
    
    
    ----------------------------|----------------------------|
    -----5--6--5------3-4--4-3--|-----5--6--5------3
  • +
    ¡Colabora con nosotros!
    Envíanos tu versión de esta canción

Letra de A la mierda el pais vasco
Oh pueblo
Que bien te guarda tu hertzaina
Con sus normas, sus leyes, sus trampas
Oh pueblo
A la mierda el Pais Vasco
Alguien tenia mucha razon
Los tanques de guerra se pudren
Y los viejos militares
Querran ganar su ultima guerra

Laberinto vasco
Laberinto vasco
Euskadi sigue rodando y rodando
Cayendose por el barranco

Las gestoras Pro-Amnistia
Dormían
Mientras nosotros nos pudríamos
De asco




[A la mierda el pais vasco chords][A la mierda el pais vasco cifra]
© LaCuerda.net · aviso legal · privacidad · es · en · pt · contacto
DINAMICO