Acordes de Guitarra » E »Eros Ramazzotti » Dímelo a mí (Tab)

Dímelo a mí
Eros Ramazzotti

  • Letra y Acordes
    F#m (2)  D A E
    
         F#m
    Aunque te veo otra vez, que hay en tus ojos no sé
         D                  A    E
    la oscuridad los ha atravesado.
         F#m
    Pareces alguien a quien, la vida no trata bien
         D                  A    E
    y poco a poco su alma ha abandonado.
         D                A                 E
    El dolor no se supera si tu corazón se cierra,
      D                                   A           E
    pero hay algo que has olvidado: yo estoy contigo aquí.
    
    (coro)
    
       F#m           A       D    A  E        F#m
    Dímelo a mí, háblame de ti, yo te escucharé
              D                     A                 E
    
  • Letra y Acordes
           Em   G   C  D  Am  B  A  F#m  E  B7
    E-||----0---3---0--2---0--2--0---2---0--2
    B-||----0---3---1--3---1--4--2---2---0--0
    G-||----0---4---0--2---2--4--2---2---1--2
    D-||----2---5---2--0---2--4--2---4---2--1
    A-||----2---5---3--X---0--2--0---4---2--2
    E-||----0---3---0--X---0--2--0---2---0--0
    
    INTRO
    Em G C G D
    
               Em                          G
    Aunque te veo otra vez, que hay en tus ojos no sé
               C               G D
    la oscuridad los ha atravesado.
            Em                       G
    Pareces alguien a quien, la vida no trata bien
             C                 G    D
    y poco a poco su alma ha abandonado.
    Am                    C
    
  • Tablatura
    Saludos esta es mi segunda aportacion a Lacuerda, espero les guste:
    
    
    Este es el Principio
    
    E||---9----12--9--10-----9--9--|-----12--9--10-----9--9-----|
    B||--10------------------------|----------------------------|
    G||--11------------------------|----------------------------|
    D||--11------------------------|----------------------------|
    A||---9------------------------|----------------------------|
    E||---9------------------------|----------------------------|
    
    --9-----12--9--10-----9--9--|-----10--9-------------------|
    ----------------------------|------------12-----10--9-----|
    ----------------------------|-----------------------------|
    ----------------------------|-----------------------------|
    ----------------------------|-----------------------------|
    ----------------------------|-----------------------------|
    
    ---9----12--9--10-----9--9--|-----12--9--10-----9--9-----|
    --10------------------------|----------------------------|
    --11------------------------|---------------------------
  • +
    ¡Colabora con nosotros!
    Envíanos tu versión de esta canción

Letra de Dímelo a mí
Aunque te veo otra vez, que hay en tus ojos no sé
la oscuridad los ha atravesado.
Pareces alguien a quien, la vida no trata bien
y poco a poco su alma ha abandonado.
El dolor no se supera si tu corazón se cierra,
pero hay algo que has olvidado: yo estoy contigo aquí.
Dímelo a mí, háblame de ti, yo te escucharé
porque quisiera entender esa pena que sientes crecer
Dímelo a mí, que es lo que no va bien,
yo no te juzgaré, si hay una culpa lo sé,
toda tuya no puede ser, dímelo a mí.
El mundo gira al revés y tu futuro no ves
como una nave entre tormentas.
Que te da miedo lo sé, pero no puedo creer
que no te queden sueños si lo intentas.
Lloras lágrimas amargas, todo dentro te lo guardas
pero hay algo que has olvidado: yo estoy contigo aquí.
Dímelo a mí, háblame de ti, yo te escucharé
porque quisiera entender esa pena que sientes crecer
Dímelo a mí, que es lo que no va bien,
yo te responderé, si tu te quieres curar
poco a poco te tienes que amar.
No te niegues la belleza, ve descubriendo,
los amores que cultives que van creciendo
siempre que querrás.
Dímelo a mí, háblame de ti, yo te escucharé
porque quisiera entender esa pena que sientes crecer
Dímelo a mí, que es lo que no va bien,
yo te responderé, si tu te quieres curar
poco a poco te tienes que amar. Dimelo a mi.
Dimelo a mi
Bueno aqui le dejo esta cancion que esta genial.
De el nuevo disco de Eros
Espero les guste tanto como a mi.
Creo que tiene algunos errores, si escuhan alguno avisan a mi mail.
Pero en general creo que esta bien.
Disfrutenla.
Dedicada a todos mis buenos amigos & a Gabhy.
AlexisMendoza 2009
::=====(===O: )



© LaCuerda.net · aviso legal · privacidad · contacto