Tablatura para Guitarra de Enrique Iglesias: Héroe
Conexión · Inscripción
Letras y Acordes
Pantalla Completa
Imprimir
Versión Texto
Añadir Favorito
Otras Versiones

Mostrar Diagramas
Desfile Automático
Manipular Acordes
Formato del Texto


Héroe(TAB)

Enrique Iglesias

calidad:
eigl0062
AUTOR: Paul Barry, Enrique Iglesias, Mark Taylor
ALBUM: Escape
Enviado por char
INTRO:

 *G*                *G*
e-------3----------|-------3----------|
B-----3----3----3--|-----3----3----3--|
G---0--------0-----|---0--------0-----|
D------------------|------------------|
A------------------|------------------|
E-3----------------|-3----------------|

 *Em*              *Em*
e-------3----------|-------3----------|
B-----3----3----3--|-----3----3----3--|
G---0--------0-----|---0--------0-----|
D------------------|------------------|
A------------------|------------------|
E-0----------------|-0----------------|

 *C*               *C*                *D*
e-------3----------|-------3----------|-------3----------2--|
B-----3----3----3--|-----3----3----3--|-----3----3----3-----|
G---0--------0-----|---0--------0-----|---2--------2--------|
D------------------|------------------|-0----------------0--|
A-2----------------|-2----------------|---------------------|
E------------------|------------------|---------------------|

G Em Si una vez yo pudiera llegar
C D a erizar, de frio tu piel
G Em A quemar, que se yo, tu boca,
C D G y morirme alli, despues.
G Em Y si entonces, temblaras por mi,
C D lloraras, al verme sufrir
G Em Hay sin dudar, tu vida entera dar,
C D G como yo la doy por ti. CORO:
G D C Si pudiera ser tu heroe
G D C Si pudiera ser tu dios
G D C Que salvarte a ti mil veces
G D C puede ser mi salvacion
G Em Si supieras, la locura que llevo
C que me hiere, y me
D mata por dentro
G Em Y que mas da, mira que al final
C D G lo q importa es que te quiero CORO:
G D C Si pudiera ser tu heroe
G D C Si pudiera ser tu dios
G D C Que salvarte a ti mil veces
G D C puede ser mi salvacion SOLO: e---------------------|--------------------------| B---------------------|--------------------------| G---------------------|--------------------------| D-5-5-5-7-7/9-7/9-9-9-|-7-5-5--5-----------------| A---------------------|----------5-5/7-7-7h8-7-5-| E---------------------|--------------------------| e--------------------------|-------------------------| B---------7------------7---|-7-8-7-------------------| G-5/7-7-7---7--5/7-7-7---7-|-7-----7---------------7-| D-0------------------------|-7-------7/9-9-9/5-5/7---| A--------------------------|-------------------------| E--------------------------|-------------------------|
G Em C jaa, dejame tocarte,
D quiero acariciarteee
G Em una vez mas, mira que al final
C D G lo que importa es que te quiero. CORO:
G D C Si pudiera ser tu heroe
G D C Si pudiera ser tu dios
G D C Que salvarte a ti mil veces
G D C puede ser mi salvacion
G D C Quiero ser tu heroe,
G D C si pudiera ser tu dios,
G D C porque salvarte a ti mil veces
G D C puede ser mi salvacion
G D C puede ser mi salvacion
G D C ...quiero ser tu heroe.
Este fichero es trabajo propio de su transcriptor y representa su interpretación personal de la canción. El material contenido en esta página es
para exclusivo uso privado, por lo que se prohibe su reproducción o retransmisión, así como su uso para fines comerciales.

© LaCuerda.net · Aviso Legal · Privacidad