GuitarraViva aterriza en LaCuerda
Bunbury-Moran-Dominguez-Gacias
Peque~o [2000]
Aqui esta la parte que toca el guitarrista de Bunbury (no se como se llama) 
a la mitad de la cancion 'Contradictorio'.
 
e|-----------------------------------------------------------------|
B|-----8-8-8-8-----------------------------------------------------|
G|----9--------9-9----------------7h8-7h8-8p7----------------------|
D|--10-------------10----------10-------------10-12-10-12----------|
A|--8-----------------8~--8-12----------------------------10-10-13-|
E|-8---------------------------------------------------------------|

e|--------------------------------------------------------------------------------|
B|-----8-8-8-8--------------------------------------------------------------------|
G|----9--------9-9----------------7h8-7h8-8p7-----7h8-10/12--12/13-13/15-15/17-17-|
D|--10-------------10----------10--------------10---------------------------------|
A|--8-----------------8~--8-12----------------------------------------------------|
E|-8------------------------------------------------------------------------------|

e|----------------------------------------------------------------|
B|----------------------------------------------------------------|
G|-15/17\15-15~~-13/15\13-13~~-12/13\12-12~~----------------------|
D|-17/19\17-17~~-15/17\15-15~~-14/15\14-14~~----10/13\10-8-10-----|
A|----------------------------------------------------------------|
E|----------------------------------------------------------------|

e|----------------------------------------------------------------|
B|----------------------------------------------------------------|
G|----------------------------------------------------------------|
D|----------------------------------------------------------------|
A|-10/11\10-p8h10-------------------------------------------------|
E|------------------10/11\10-p8h10----5h6p4---1h3-4h6-6h8p6-4h6---|

   'Y si ayer dije blanco...'

 comentarios, errores, sugerencias, preguntas a: guerra14@hotmail.com
Este fichero es trabajo propio de su transcriptor y representa su interpretación personal de la canción. El material contenido en esta página es
para exclusivo uso privado, por lo que se prohibe su reproducción o retransmisión, así como su uso para fines comerciales.
© LaCuerda.net · aviso legal · privacidad · es · en · pt · contacto