Tablatura para Guitarra de Ella es tan Cargosa: Ni siquiera entre tus brazos
Conexión · Inscripción
Letras y Acordes
Pantalla Completa
Imprimir
Versión Texto
Añadir Favorito
Otras Versiones

Mostrar Diagramas
Desfile Automático
Manipular Acordes
Formato del Texto


Ni siquiera entre tus brazos(TAB)

Ella es tan Cargosa

calidad:
eetn0033
AUTOR: Rodrigo Manigot
ALBUM: Ella es tan Cargosa (2007)
Enviado por Liuco, basado en Pablo
Este es el solo de la cancion:

e|-------------------------------------------------|
B|-------------------------------------------------|
G|--9-7-6---6-7---6-7-9-7-6---6-7-6----------------|
D|--------9-----------------9-------9--------------|
A|-------------------------------------------------|
E|-------------------------------------------------|

e|-------------------------------------------------|
B|--10-10s9-9s7-7s5-5s3-3s2s0----------------------|
G|----------------------------2--------------------|
D|-------------------------------------------------|
A|-------------------------------------------------|
E|-------------------------------------------------|

e|--5-5s7-7s9-9s10-11s12-12s14-12------------------|
B|-------------------------------------------------|
G|-------------------------------------------------|
D|-------------------------------------------------|
A|-------------------------------------------------|
E|-------------------------------------------------|

e|-------------------------------------------------|
B|-------------------------------------------------|
G|--9-7-6---6-7---6-7-9-7-6---6-7-6----------------|
D|--------9-----------------9-------9--------------|
A|-------------------------------------------------|
E|-------------------------------------------------|

e|--5-5s7-7-7-7s9-9s10-10s9-10s9-9s7-7s5-----------|
B|-------------------------------------------------|
G|-------------------------------------------------|
D|-------------------------------------------------|
A|-------------------------------------------------|
E|-------------------------------------------------|

e-------------------------------------------------
B----------------------10-------------------------
G-9h11-9----------9h11----------------------------
D--------11-9------------------------7--9/11-9----
A-------------12--------------7-7h9---------------
E-------------------------------------------------
Este fichero es trabajo propio de su transcriptor y representa su interpretación personal de la canción. El material contenido en esta página es
para exclusivo uso privado, por lo que se prohibe su reproducción o retransmisión, así como su uso para fines comerciales.

© LaCuerda.net · Aviso Legal · Privacidad