Tablatura para Guitarra de DeSaloon: Abrázame
Conexión · Inscripción
Letras y Acordes
Pantalla Completa
Imprimir
Versión Texto
Añadir Favorito
Otras Versiones

Mostrar Diagramas
Desfile Automático
Manipular Acordes
Formato del Texto


Abrázame(TAB)

DeSaloon

calidad:
desa0373
AUTOR: De Saloon
ALBUM: desconocido
Enviado por Tomas
Puede resultar algo largo y difícil
Pero es facil y divertido de tocar


Punteo intro
e|--14-------------19---------------|
B|----15-15---12-----19-19---17-----|
G|---------14-------------19--------| x2
D|----------------------------------|
A|----------------------------------|
E|----------------------------------|


Punteo Coro
e|------10----10-----9---9--9--
B|--/12----12-----10---10-10-----


-----10--10----9---9---9----10---10----9--9---9------14--14-15-15------|
--12--12----10--10--10---12--12-----10-10--10-----15--15---15-15------|








Punteo despues del  2do coro

e|-----------------------15-14---------------17----|
B|---12---15-14-15---12-------15--------12---------|
G|-----14--------------14-----------------14-------|
D|-------------------------------------------------|
A|-------------------------------------------------|
E|-------------------------------------------------|



Punteo antes del segundo coro

e|---2-----2-----2------9------9-----9------7----7----7--------------------|
B|-----3-----3-----3------10-----10----10-----8----8----8------------------|
G|-------2-----2-----2-------9------9-----9-----7----9----9----------------|X2
D|-------------------------------------------------------------------------|
A|-------------------------------------------------------------------------|
E|-------------------------------------------------------------------------|
la posición es un re y solo vas cambiando de trastes

Cuídense !
Este fichero es trabajo propio de su transcriptor y representa su interpretación personal de la canción. El material contenido en esta página es
para exclusivo uso privado, por lo que se prohibe su reproducción o retransmisión, así como su uso para fines comerciales.


© LaCuerda.net · Aviso Legal · Privacidad