Acordes de Guitarra » D »Los del fuego » Tú (Tab)


Los del fuego

Letras, Acordes y Tabs para Guitarra, Bajo y Ukulele

  • Bm - Em
    F# - Bm - Em - Bm - F# - Bm
    
    
    Bm
    Tímida y dulcísima eres tú
                                          Em
    Marchita tus ojeras un incendio de pasión
                           Bm
    Eres todo todo lo más bello y natural
         F#                              Bm
    El aire el campo el mar la noche el sol
                                 Em              Em
    Y aún eres más, porque eres bien, del mismo bien
                Em     F#           Bm
    Fuente de amor, madre de Dios mujer.
    
    
    A                   D
    Candida paloma enamorada
    
  • Bm - Em
    F# - Bm - Em - Bm - F# - Bm
    
    e-10-10-10-10--9-9--7-7---------7-------------------------
    B------------------------7-7--7---10-8-7-8--7-7-----8-8---
    G-----------------------------------------------9-9-------
    D---------------------------------------------------------
    
    e-12-12-12-12--10-10--9-9-------------------------------7--
    B-------------------------11...----7---7---------------7---
    G---------------------------------6-6-----6---7-6-----7----
    D--------------------------------8---8---8-8------9--9-----
    
    e---------------7-7--7-6-7---------------------14-14--14-13-14
    B----------8-8--------------------------15-15-----------------
    G--9-9-9-9------------------16-16-16-16-----------------------
    D-------------------------------------------------------------
    
    e-------------------------------------------------------7-
    B-/14--12-12---------------------7---7-----------------7--
    
  • +
    ¡Colabora con nosotros!
    Envíanos tu versión de esta canción

Letra de Tú
Tímida y dulcísima eres tú
Marchita tus ojeras un incendio de pasión
Eres todo todo lo más bello y natural
El aire el campo el mar la noche el sol
Y aún eres más, porque eres bien, del mismo bien
Fuente de amor, madre de Dios mujer.
Candida paloma enamorada
Embriágame con la música de tu corazón
Bésame en silencio bésame que sobre mi boca trémula
Tus besos serán himnos de luz
Quiero besar tus labios sobre la cruz
Dejar quiero mi ruegos mi diosa eres tú.
Pétalos y lágrimas besé
La noche que en tu boca fue pasión mi soledad
Y ese llanto tuyo floreció con la canción
Que con mi voz te grita amor, amor
Ya no eres mas la ardiente flor de tentación
Quiere pecar mi viejo corazón.
Esta canción esta dedicada para mi hija Alison
Canción sacada la estilo de MIGUEL ANGEL MACEDO
Berazategui, 22-enero-2012 (505)
macerathy@yahoo.com.ar




[Tú chords][Tú cifra]
© LaCuerda.net · aviso legal · privacidad · es · en · pt · contacto
DINAMICO