Acordes de Guitarra » D »Los del Bohio » Tiniebla sobre la arena (Tab)

Tiniebla sobre la arena
Los del Bohio

Letras, Acordes y Tabs para Guitarra, Bajo y Ukulele

  •       MIm.
    Ves aquel camino sobre la arena,
       LAm.                  MIm
    Camino que sin ti recorreré tal vez
    Ves aquella estrella que a mi me lleva,
    Dormida entre la noche iluminandome
    
           SOL
    (Coro) Yooooooo
                         MIm
    Perdido entre las tinieblas voy
                   SI7
    (Coro) Yo mi amoooor
                       MIm
    Llevo conmigo este gran dolor,
    (Coro) Yooooooo
    De la noche prisionero soy
    (Coro) Ya me voooy
    Ya no ves luz en mi corazón
    
    
  • E-----8-----------------------------------------
    B-8/9---9----9-------9--------------------------
    G---------10----8-10---10------8----------------
    D-------------------------8-10------10----------
    A--------------------------------11----11-8-6-8-
    E-----------------------------------------------
    
    E-----8----------------------------8-----------13-15-16-
    B-8/9---9----9-------9-----------9---9------13----------
    G---------10----8-10---10------8-------10---------------
    D-------------------------8-10------------8-------------
    A-------------------------------------------------------
    E-------------------------------------------------------
    
    E------------------------------------------------
    B------------------------------------------------
    G-10-10-0-10-0-8-0-8-0-6--10-10-0-10-0-8-0-8-0-6-
    D------------------------------------------------
    A------------------------------------------------
    E------------------------------------------------
    
    E------------------------------------------------
    B----------
  • +
    ¡Colabora con nosotros!
    Envíanos tu versión de esta canción

Letra de Tiniebla sobre la arena
Ves aquel camino sobre la arena,
Camino que sin ti recorreré tal vez
Ves aquella estrella que a mi me lleva,
Dormida entre la noche iluminandome
Perdido entre las tinieblas voy
Llevo conmigo este gran dolor,
De la noche prisionero soy
Ya no ves luz en mi corazón
Limpiando mi rostro de noche con su luz
Y al pasar por los montes el silbido,
De los vientos son testigos y también mi cruz




[Tiniebla sobre la arena chords][Tiniebla sobre la arena cifra]
© LaCuerda.net · aviso legal · privacidad · es · en · pt · contacto
DINAMICO