Acordes de Guitarra » D »Los de Marras » Tómbola (Tab)

Tómbola
Los de Marras

Letras, Acordes y Tabs para Guitarra, Bajo y Ukulele

  • E|--------------------------
    B|--------------------------
    G|--------------------------
    D|----------------2-2-2---2-
    A|-3-3-3-2-3--3-3-------3---
    B|--------------------------  x4
    
    
       LA      DO      FA      SOL      *1 (ritmo 2 golpes en p.m y 1 normal)
    
    E|----------------------------------
    B|----------------------------------
    G|----------------------------------
    D|---------2-2-0-2--0-2-3-5-3-2-0---
    A|-3-3-2-3------------------------2-
    B|----------------------------------
    
    
    Riff *1                 Riff *2                 Riff *3
    
    
  • E|--------------------------
    B|--------------------------
    G|--------------------------
    D|----------------2-2-2---2-
    A|-3-3-3-2-3--3-3-------3---
    B|--------------------------  x4
    
    
       LA      DO      FA      MI      *1 (ritmo 2 golpes en p.m y 1 normal)
    
    E|---------------------------------
    B|---------------------------------
    G|---------------------------------
    D|---------2-2-1-2-----2-3-5-3-2---
    A|-3-3-2-3---------3-3-----------3-
    B|---------------------------------
    
    
    Riff *1                 Riff *2                 Riff *3
    
    
  • +
    ¡Colabora con nosotros!
    Envíanos tu versión de esta canción

Letra de Tómbola
Riff *1 Riff *2 Riff *3
(ritmo 2 golpes en p.m 1 normal)
Yo no quiero decir nada
pero todos los que salen en la tele tienen cara de gilipollas
(ritmo p.m)
que me cuentan sus historias de viajes con los marcianos
que son grandes y con granos y con dos metros de poya
(1º Guitarra 1 golpe por acorde y varios en La)
(2º Guiarra modo ska, siempre parriba, y varios en La)
¿Es que no te da verguenza? ¿Es que no tienes familia?
(ritmo p.m y la otra guitarra 1 golpe por acorde)
Que te van a ver tus hijos que te va a ver tu mujer
(ritmo 1 golpe por acorde)
y en el curro ya veras (mañana na na na) la mofa general
(ritmo 2 golpes en p.m 1 normal)
Ha salido mi vecina
diciendo que su marido el que escupe y el que se mea en el patio
me levanto y voy corriendo haber si lo pillo meando
y me encuentro al tio agachao hoy esta giñando
(1º Guitarra 1 golpe por acorde y varios en La)
(2º Guiarra modo ska, siempre parriba, y varios en La)
¿Es que no le da verguenza? ¿Es que no han visto a su gente?
(ritmo p.m y la otra guitarra 1 golpe por acorde)
por salir cuatro minutos aguantando que un capullo se ria
(ritmo 1 golpe por acorde)
de usted y le den (señora lalala) collejas en la frente
(en la 2º y 4º repeticion la última nota se deja sonando)
(ritmo 2 golpes en p.m 1 normal)
A las cuatro de la mañana
cuando ya han cerrao los bares en mi tele hay gente que hace abdominales
anorexicas que anuncian aparatos de gimnasia
para asi aguantar mas rectas el peso de las compresas
(1º Guitarra 1 golpe por acorde y varios en La)
(2º Guiarra modo ska, siempre parriba, y varios en La)
¿Es que no ves que te engañanan? ¿Es que no ves que es mentira?
(ritmo p.m y la otra guitarra 1 golpe por acorde)
Que es mejor ser gordo y feo y beber mucha cerveza
(ritmo 1 golpe por acorde)
antes que ser un capullo (idiota tatata) sin nada en la cabeza
(el ritmo de la 1º repetición es 1 toque por acorde)
(el ritmo de la 2º repetición es peculiar)
(el ritmo de la 3º repetición es p.m menos La que es varias en normal)
La vida es una tómbola tom tom tómbola
La vida es una tómbola tom tom tómbola de luz y de color x2
La vida es una tómbola tom tom tómbola
La vida es una tómbola tom tom tómbola
La vida es una tómbola tom tom tómbola de luz y de color
PD: Para quien no sea de Valencia, Tómbola es un programa de cotilleo
que hacen en Canal 9
http://myspace.com/losttimevlc




[Tómbola chords][Tómbola cifra]
© LaCuerda.net · aviso legal · privacidad · es · en · pt · contacto
DINAMICO