Tab p/Bajo de Los de Marras: Sexo en la calle
Los de Marras  corregir
desconocido
Bueno, aqui les dejo mi primera tablatura publicada, es de bajo, aunque
yo toco la guitarra, pero la he sacado para mi grupo, Kalimoxo Kaducao.
Espero que les guste! (les añado tambien la letra para ir siguiendolo
con mas facilidad, y ademas una aclaracion de la guitarra.)


INTRO (Acordes + Punteo de Guitarra)

      ****                  x1                    x3
|-----Solo------|------------------------|------------------|
|-----toca------|------------------------|------------------|
|------la-------|--------3--1-0----------|--3--1-0----------|
|---guitarra----|--0-1-3---------3--1-0--|----------3--1-0--|

1ª Estrofa
                 x3                                   x2
|-----------------------------------|-----------------------------------|
|-----------------------------------|-----------------------------------|
|------------------3-3-3-3----------|-----------------------------------|
|--5-5-5-5-1-1-1-1---------3-3-3-3--|--1-1-1-1-3-3-3-3-5-5-5-5-5-5-5-5--|

         x1
|-------------------|
|-------------------|
|-------------------|
|--1-1-1-1-3-0-1-3--|

 Quiero queme ahorques con tus bragas.
 Quiero atragantarme con tus flujos vaginales,
 jugaremos a los juegos más antinaturales
 follaremos en el suelo como unos animales,
 cuando la luna lo diga, saldremos escurrios,
 que si viene nos la lía monta una carnicería
 y a quien coño se le ocurre tener... un viejo policía (Punteo Guitarra)

2ª Estrofa
                  x3                                  x1
|-----------------------------------|-----------------------------------|
|-----------------------------------|-----------------------------------|
|------------------3-3-3-3----------|-----------------------------------|
|--5-5-5-5-1-1-1-1---------3-3-3-3--|--1-1-1-1-3-3-3-3-5-5-5-5-5-5-5-5--|

 Quiero cabalgar sobre tu lomo.
 Quiero que te anudes a mi cuello y te lo como,
 perderemos los papeles follando en ascensores
 en el patio de un colegio o en el techo de mi coche,
 brindaremos un orgasmo a la gente que nos mira
 que nos grita, nos critica y en el fondo lo que pasa,
 es... es... que se mueren de envidia                (Punteo de Guitarra)

Estribillo
               x4                 x1
|---------------------------|------------|
|---------------------------|------------|
|--------------3-3-3--------|------------|
|--5-5-5-1-1-1-------3-3-3--|--3-3-3--3--|

 Sexo en la calle o en cualquier jardín.
 Quiero que sepan como estoy por ti.
 Vicios prohibidos en cualquier rincón.
 Orgasmos salvajes follando a piñón

INTRO 2 (Punteo de Guitarra)
                 x1
|----------------------------------|
|----------------------------------|
|--3--1-0----------3--1-0----------|
|----------3--1-0----------3--1-0--|

3ª Estrofa
                 x3                                    x2
|-----------------------------------|-----------------------------------|
|-----------------------------------|-----------------------------------|
|------------------3-3-3-3----------|-----------------------------------|
|--5-5-5-5-1-1-1-1---------3-3-3-3--|--1-1-1-1-3-3-3-3-5-5-5-5-5-5-5-5--|

          x1
|-------------------|
|-------------------|
|-------------------|
|--1-1-1-1-3-0-1-3--|

 Quiero que me ates a tu cama.
 Quiero que me arañes hasta que sangre mi alma,
 romperos nuestros cuerpos a golpes de lascivia
 follaremos en el metro saldremos en las noticias,
 pensaran que estamos locos que no somos humanos
 si lo nuestro es puro vicio, solo sexo una locura
 tu te estas mojando toda y a mi...Se me esta poniendo dura (Punt.Guit.)

4ª Estrofa
                  x3                                  x1
|-----------------------------------|-----------------------------------|
|-----------------------------------|-----------------------------------|
|------------------3-3-3-3----------|-----------------------------------|
|--5-5-5-5-1-1-1-1---------3-3-3-3--|--1-1-1-1-3-3-3-3-5-5-5-5-5-5-5-5--|

 Quiero ser un 'pirsin' en tus tetas.
 Quiero ser un bicho que te sube por las piernas,
 para llegar a ese monte donde se que hay más bichitos
 que te pican que se esconden que están todos calentitos,
 y me voy a poner chulo para echarlos a patadas
 y el que me vacile pilla no me ando con tonterias
 y es que me pongo celoso... hasta de tus ladillas   (Punteo de Guitarra)

Estribillo
              x4                x3
|---------------------------|---------|
|---------------------------|---------|
|--------------3-3-3--------|---------|
|--5-5-5-1-1-1-------3-3-3--|--3-3-3--|

 Sexo en la calle o en cualquier jardín.
 Quiero que sepan como estoy por ti.
 Vicios prohibidos en cualquier rincón.
 Orgasmos salvajes follando a piñón

Estribillo 2
             x4                  x1               x1
|---------------------------|-----------|----------------------|
|---------------------------|-----------|----------------------|
|--------------3-3-3--------|-----------|----------------------|
|--5-5-5-1-1-1-------3-3-3--|--3-3-3-3--|----3-3-3-3-5------5--|

 Sexo en la calle o en cualquier jardín. (follando a piñon)
 Quiero que sepan como estoy por ti. (follando a piñon)
 Vicios prohibidos en cualquier rincón. (follando a piñon)
 Orgasmos salvajes follando a piñón
 Follando a piñón........



Si tienen alguna duda, o simplemente contactar conmigo o con Kalimoxo
Kaducao, manden un email a oscarmarko@hotmail.com.
Saludos y a disfrutar de la buena música!!!
Este fichero es trabajo propio de su transcriptor y representa su interpretación personal de la canción. El material contenido en esta página es
para exclusivo uso privado, por lo que se prohibe su reproducción o retransmisión, así como su uso para fines comerciales.
© LaCuerda.net · aviso legal · privacidad · es · en · pt · contacto