Tablatura para Bajo de Danilo Montero: Te alabo
Conexión · Inscripción
Letras y Acordes
Pantalla Completa
Imprimir
Versión Texto
Añadir Favorito
Otras Versiones

Mostrar Diagramas
Desfile Automático
Formato del Texto


Te alabo(BAJ)

Danilo Montero

calidad:
dmon0423
AUTOR: Danilo Montero  corregir
ALBUM: Sigueme (2002)
Enviado por Lucho
 Lo k kiero representar con el sub guion al lado del 5 (5__)
es k el sonido de la nota perdura,
 sigue sonando.

::InTrO::
   B/D#  E     A                     G#m  C#m   F#
E|-------------5_|_5--5-5-5-5-5-5-|-5-4-4-------2_|_2--2-2-2-2-2-2-|
A|---6-6-7-7-----|----------------|-------4-4-----|----------------|
D|---------------|----------------|---------------|----------------|
G|---------------|----------------|---------------|----------------|

     D#  E     A                      G#  C#    D
E|-2-----------5_|_5--5-5-5-5-5-5-|-5-4-4---------|-------------||
A|---6-6-7-7-----|----------------|-------4-4---5_|_5-----------||
D|---------------|----------------|---------------|-------------||
G|---------------|----------------|---------------|-------------||


::EsTrOfA 1::
   F#                               G
E|-2--2-2-2-2-2---|-2--2-2-2-2---2|-3--3-3-3-3---|-3--3-3-3-3-3---|
A|----------------|---------------|--------------|----------------|
D|----------------|---------------|--------------|----------------|
G|----------------|---------------|--------------|----------------|

   F#                               G
E|-2--2-2-2-2-2---|-2--2-2-2-2---2|-3--3-3-3-3---|-3--3-3-3-3-3---||
A|----------------|---------------|--------------|----------------||
D|----------------|---------------|--------------|----------------||
G|----------------|---------------|--------------|----------------||


::PrE - CoRo 1::
   E                B                C#m                 A
E|-12----------12-|----------------|-9-----12-14-----|-------12----|
A|----------------|-14----------11-|--------------11-|-12-11-----0-|
D|----------------|----------------|-----------------|-------------|
G|----------------|----------------|-----------------|-------------|

   E                B/D#             C#m                 D(add2)
E|-12-----------12|-11-----------4-|---------------5---|-----------||
A|----------------|----------------|-4-----------------|-5---------||
D|----------------|----------------|-------------------|-----------||
G|----------------|----------------|-------------------|-----------||


::EsTrOfA 2:: = ::EsTrOfA 1::



::PrE - CoRo 2::

E|---------------|7-7-7-7-7-7-7-7|---------------|5---5---5-5-5-5|
A|7-7-7-7-7-7-7-7|---------------|4-4-4-4-4-4-4-4|---------------|
D|---------------|---------------|---------------|---------------|
G|---------------|---------------|---------------|---------------|


E|---------------|7-7-7-7-7-7-7-7|---------------|--------------||
A|7-7-7-7-7-7-7-6|---------------|4-4-4-4-4-4-4-4|5-----5-5-5s--||
D|---------------|---------------|---------------|--------------||
G|---------------|---------------|---------------|--------------||

::PaUsA AnTeS DeL CoRo::
   B/D#  E     A                     G#m  C#m   F#
E|-------------5_|_5--5-5-5-5-5-5-|-5-4-4-------2_|_2--2-2-2-2-2-2-|
A|---6-6-7-7-----|----------------|-------4-4-----|----------------|
D|---------------|----------------|---------------|----------------|
G|---------------|----------------|---------------|----------------|


::CoRo::
  Tù eres...
E|------------5_|_5--5--5-5-5-5-|-5-4-4--------2_|_2--2--2-2-2-2_|
A|--------------|---------------|-------4-4------|---------------|
D|--------------|---------------|----------------|---------------|
G|--------------|---------------|----------------|---------------|


E|_2---------4-5_|_5--5-5-5-5-5-|-5-4-4-----5---|----------------|
A|---6-6-7__-----|--------------|-------4-4---5_|____5---5-5-5-5-|
D|---------------|--------------|---------------|----------------|
G|---------------|--------------|---------------|----------------|


E|-------------5_|_5--5-5-5-5-5-|-5-4-4--------2_|_2--2--2-2s-14-|
A|-5s------------|--------------|-------4-4------|---------------|
D|---------------|--------------|----------------|---------------|
G|---------------|--------------|----------------|---------------|


E|-------------5_|_5--5-5-5-5-5-|-5-4-4-----5---|
A|---6-6-7-7-----|--------------|-------4-4---5-| D 2 veces
D|---------------|--------------|---------------|
G|---------------|--------------|---------------|


::SoLo D' GuItArrA::
  F#              C#              D#m             B
E|---------------|---------------|---------------|---------------|
A|9-9-9-9-9-9-9-9|4-4-4-4-4-4-4-4|6-6-6-6-6-6-6-6|2-2-2-2-2-2-2-2|
D|---------------|---------------|---------------|---------------|
G|---------------|---------------|---------------|---------------|

  B               F#              C#               E
E|---------------|---------------|----------------|--------||
A|2-2-2-2-2-2-2-2|9-9-9-9-9-9-9-9|4-4-4-4-4-4-4-4s|7(8)----||
D|---------------|---------------|----------------|--------||
G|---------------|---------------|----------------|--------||


::CoRo::
  F#              C#              D#m              B(B agudo)
E|---------------|---------------|----------------|---------|
A|9-9-9-9-9-9-9-9|4-4-4-4-4-4-4-4|6-6-6-6-6-6-6-6s|14-------|
D|---------------|---------------|----------------|---------|
G|---------------|---------------|----------------|---------|

  F#              C#              D#m             E
E|---------------|---------------|---------------|---------------|
A|9-9-9-9-9-9-9-9|4-4-4-4-4-4-4-4|6-6-6-6-6-6-6-6|7-7-7-7-7-7-7-7|
D|---------------|---------------|---------------|---------------|
G|---------------|---------------|---------------|---------------|


  F#              C#              D#m             B
E|---------------|---------------|---------------|---------------|
A|9-9-9-9-9-9-9-9|4-4-4-4-4-4-4-4|6-6-6-6-6-6-6-6|2-2-2-2-2-2-2-2|
D|---------------|---------------|---------------|---------------|
G|---------------|---------------|---------------|---------------|


  F#              C#              D#m             E
E|---------------|---------------|---------------|---------------||
A|9-9-9-9-9-9-9-9|4-4-4-4-4-4-4-4|6-6-6-6-6-6-6-6|7-7-7-7-7-7-7-7||
D|---------------|---------------|---------------|---------------||
G|---------------|---------------|---------------|---------------||


::FiNaL::

Cada nota x compas
  F#         C#          D#m        B
  F#         F           D#m        E
  F#         C#          D#m        B
  F#/A#      C#          D#m        E

...Lo k aki muestro es el eskema de la song, por favor escuchen
la cancion para k puedan dar las figuras en los tiempos exactos.
Kualkier duda les dejo mi correo lucho_sjm@hot.
Este fichero es trabajo propio de su transcriptor y representa su interpretación personal de la canción. El material contenido en esta página es
para exclusivo uso privado, por lo que se prohibe su reproducción o retransmisión, así como su uso para fines comerciales.

© LaCuerda.net · Aviso Legal · Privacidad