Acordes de Guitarra » D »Daniel Poli » Oración de la noche (Tab)

Oración de la noche
Daniel Poli

Letras, Acordes y Tabs para Guitarra, Bajo y Ukulele

  • ----0-----0-------------0-----0---------0-----0-------------0---0----
    ---------------------------------------------------------------------
    ---------------------------------------------------------------------
    -0---------------0---------------------2---------------2-------------
    ---------------------0----------------------------------------0------
    
    
    -5-----7-----9------4-----5-----7---2----4-----5---2---0---0--0-------
    ----0-----0-------------0-----0---------0-----0-------------0---0-----
    ----------------------------------------------------------------------
    ----------------------------------------------------------------------
    -0---------------0---------------------2---------------2--------------
    ---------------------0----------------------------------------0-------
    
    
    E                                B
    Señor el día muere, nuestro sol desciende ya
    E                A         E       B     E
    A ti suben los sueños, de mi corazón
    A      E      B              E
    
  • +
    ¡Colabora con nosotros!
    Envíanos tu versión de esta canción

Letra de Oración de la noche
Señor el día muere, nuestro sol desciende ya
A ti suben los sueños, de mi corazón
Un día feliz, me llenaras de eternidad
Un día Señor, me esconderás en tu corazón
Oigo cantar a los hombres, ya sudosos su dolor
Quiero escuchar alli Señor el eco de tu voz
Un día feliz, me llenaras de eternidad
Un día Señor, me esconderás en tu corazón
Un día feliz, me llenaras de eternidad
Un día Señor, me esconderás en tu corazón
Final: Intro




[Oración de la noche chords][Oración de la noche cifra]
© LaCuerda.net · aviso legal · privacidad · es · en · pt · contacto
DINAMICO