Tablatura para Bajo de Daniel Calveti: Ven y sopla
Conexión · Inscripción
Letras y Acordes
Pantalla Completa
Imprimir
Versión Texto
Añadir Favorito
Otras Versiones

Mostrar Diagramas
Desfile Automático
Formato del Texto


Ven y sopla(BAJ)

Daniel Calveti

calidad:
dcal0022
AUTOR: Daniel calveti
ALBUM: Solo tu gracia (2003)
Enviado por fernando
HOLAA..me yamo fernando apodaca soi de cd. obregon son.. esta rola
esta bien curada y espero ke les guste... se la dedico a una amiga
ke se yama samantha i esta hermosa...le mando saludos ala blanka..al many
al carlos y atodos mis camaradas... bueno ai les va a rolita...

INTRO:
B--------------------------
E-1/5-----0----04----5---55-
A---------------------------
D---------------------------
G---------------------------

ESTROFA:
B-----------------------------------------------------
E--0----04-----5----55------0-----04-----5-----55-----
A----------------------------------------------------- x2
D-----------------------------------------------------
G-----------------------------------------------------

CORO:
B---------------------------------------------------
E---------------------------------------------------
A--2----24----2-----0-----02----420----00----------- X2
D---------------------------------------------------
G---------------------------------------------------

B----------------------------------------------------
E----------------------------------------------------
A--2-0---00----2-0---00------------------------------
D----------------------------------------------------
G----------------------------------------------------

ESTROFA:
B-----------------------------------------------------
E--0----04-----5----55------0-----04-----5-----55-----
A----------------------------------------------------- x2
D-----------------------------------------------------
G-----------------------------------------------------
CORO:
B---------------------------------------------------
E---------------------------------------------------
A--2----24----2-----0-----02----420----00----------- X2
D---------------------------------------------------
G---------------------------------------------------

B----------------------------------------------------
E----------------------------------------------------
A--2-0---00----2-0-----------------------------------
D----------------------------------------------------
G----------------------------------------------------

PUENTE:
B----------------------------------------------------
E-0--04---45---55-/1---0---04---45---55-4------------
A----------------------------------------------------
D----------------------------------------------------
G----------------------------------------------------

B-----------------------------------
E-0---04---45---55-4/1--------------
A----------------------------------- X4
D-----------------------------------
G-----------------------------------

CORO:
B---------------------------------------------------
E---------------------------------------------------
A--2----24---42-----20-----02----420----00---------- X2
D---------------------------------------------------
G---------------------------------------------------

B----------------------------------------------------
E----------------------------------------------------
A--2-0---00----2-0-----------------------------------
D----------------------------------------------------
G----------------------------------------------------

ESTROFA FINAL:
B------------------
E-0--04---45---55--
A------------------
D------------------
G------------------
Este fichero es trabajo propio de su transcriptor y representa su interpretación personal de la canción. El material contenido en esta página es
para exclusivo uso privado, por lo que se prohibe su reproducción o retransmisión, así como su uso para fines comerciales.

© LaCuerda.net · Aviso Legal · Privacidad