Acordes de Guitarra » D »Dani Martín » Mi Teatro (Tab)

Mi Teatro
Dani Martín

  • Letra y Acordes
    LA-MI-FA#m-RE
    
    
    LA                          MI
    Pienso en despertarte cada mañana
    FA#m                                 RE
    con un beso chulo y una guerra de almohadas
    LA                         MI
    Pienso enamorarte en cada mirada
    FA#                               RE
    con la sonrisita que yo sé que te encanta
    
    MI
    Que no me puedas mirar
    FA#m
    del amor que sientes ya
    MI
    que no quieras dormir sin mí
    REm
    que no te quieras despertar
    
  • Letra y Acordes
    e---------------------------------------------------------------------
    B---------------------------------------------------------------------
    G---------------------------------------------------------------------
    D---6h7-7-6---6h7--7-----6h7-7-6----6h7--7-----6h7-7-6-----6h7----7---
    A-0---------7--------------------7----------9----------7------------9-
    E--------------------(0)----------------------------------------------
    
    e-------------------------------|
    B-------------------------------|
    G-------------------------------|
    D----6h7--7--6---------7h9--9---|
    A-------------------------------|
    E-------------------------------|
    
    LA                           MI
    Pienso en despertarte cada mañana
    FA#m                                RE
    con un beso chulo y una guerra de almohadas
    LA                          MI
    Pienso enamorarte en cada mirada
    
  • +
    ¡Colabora con nosotros!
    Envíanos tu versión de esta canción

Letra de Mi Teatro
Pienso en despertarte cada mañana
con un beso chulo y una guerra de almohadas
Pienso enamorarte en cada mirada
con la sonrisita que yo sé que te encanta
Que no me puedas mirar
del amor que sientes ya
que no quieras dormir sin mí
que no te quieras despertar
Te espero mi teatro es para ti
ven a fabricar la luz
la que alumbre esta función
donde tu actriz enamoro
al actor que vive en mi
interpretando a un hombre serio
aburrido y ya cansado de un papel que le impusieron
Pienso en conquistarte cada mañana
que te sientas guapa porque te dé la gana
pienso en admirarte sin que tu hagas nada
porque tu silencio es la obra más cara
Que no me puedas mirar
del amor que sientes ya
que no quieras dormir sin mí
que no te quieras despertar
Te espero mi teatro es para ti
ven a fabricar la luz
la que alumbre esta función
donde tu actriz enamoro
al actor que vive en mi
interpretando a un hombre serio
aburrido y ya cansado de un papel que le impusieron
Que no me puedas mirar
del amor que sientes ya
que no quieras dormir sin mí
que no te quieras despertar
Te espero mi teatro es para ti
ven a fabricar la luz
la que alumbre esta función
donde tu actriz enamoro
al actor que vive en mi
interpretando a un hombre serio
aburrido y ya cansado de un papel que le impusieron
Te espero
ven a fabricar la luz
Te espero
mi teatro es para ti



© LaCuerda.net · aviso legal · privacidad · contacto