Tablatura para Guitarra de El Cuarteto de Nos: Insaciable
Conexión · Inscripción
Letras y Acordes
Pantalla Completa
Imprimir
Versión Texto
Añadir Favorito
Otras Versiones

Mostrar Diagramas
Desfile Automático
Manipular Acordes
Formato del Texto


Insaciable(TAB)

El Cuarteto de Nos

calidad:
cdno0942
AUTOR: Roberto Musso
ALBUM: Porfiado (2012)
Enviado por Santiago
Esta tablatura es del intro de la canción, el cual no he visto por aquí.
se hecho no estaba en ninguna página así que este lo saqué yo.
espero que sirva de ayuda para quienes la quieran tocar.


e-----------------------------------------
B-----------------------------------------
G-----------------------------------------
D-------------------5-5-------------------
A--8-5---5-5--8-5-8-----8-5---------------
E------8--------------------8-5-5-3-1-0---


e-------------------------------------------
B-------------------------------------------
G-----------------------5/7/5---------------
D-------------------5-5-------7-5-----5-----
A--8-5---5-5--8-5-8---------------8-5---5---
E------8------------------------------------


El solo del final más que todo es un jam
así que les aconsejo hacerlo en Escala Pentatonica
de RE
Este fichero es trabajo propio de su transcriptor y representa su interpretación personal de la canción. El material contenido en esta página es
para exclusivo uso privado, por lo que se prohibe su reproducción o retransmisión, así como su uso para fines comerciales.

© LaCuerda.net · Aviso Legal · Privacidad