Tablatura para Bajo de El Cuarteto de Nos: Bipolar
Conexión · Inscripción
Letras y Acordes
Pantalla Completa
Imprimir
Versión Texto
Añadir Favorito
Otras Versiones

Mostrar Diagramas
Desfile Automático
Formato del Texto


Bipolar(BAJ)

El Cuarteto de Nos

calidad:
cdno0672
AUTOR: Roberto Musso
ALBUM: Bipolar (2009)
Enviado por Marcelo
  00:10
G:|-----------|-----------| x15
D:|-----------|-----------|
A:|-0-----7---|-0-----6---|
E:|-----6-----|-----6-----|

  00:50                           00:55
G:|------------|-----------------||---------------| x6
D:|------------|-----------------||---------------|
A:|------------|-0-7-0-6-—-0-6-0-||-7-0-6--—0-6-0-|
E:|-5-5-5-5-0--|-----------------||---------------|

  01:11          01:13                  01:34
G:|-------------||--------|--------| x8 |---------|
D:|-------------||--------|--------|    |---------|
A:|-7-0-6---0-6-||0---7---|0---6---|    |-0-------|
E:|-------------||---6----|---6----|    |---------|

  01:36
G:|-----------|-----------| x6
D:|-----------|-----------|
A:|-0-----7---|-0-----6---|
E:|-----6-----|-----6-----|

  01:52                           01:57
G:|------------|-----------------||---------------| x6
D:|------------|-----------------||---------------|
A:|------------|-0-7-0-6-—-0-6-0-||-7-0-6--—0-6-0-|
E:|-5-5-5-5-0--|-----------------||---------------|

  02:13          02:16
G:|-------------||--------|--------| x8
D:|-------------||--------|--------|
A:|-7-0-6---0-6-||0---7---|0---6---|
E:|-------------||---6----|---6----|

  02:36                        02:58
G:|-----------|-----------| x8 |----------|
D:|-----------|-----------|    |----------|
A:|-0-----7---|-0-----6---|    |----------|
E:|-----6-----|-----6-----|    |----------|

  03:00
G:|----------|----------|
D:|----------|----------|
A:|-0-----7--|-0----6---|
E:|-----6----|-----6----|

  03:03
G:|----------|----------| x2
D:|----------|----------|
A:|-0----7---|-0----6---|
E:|-----6----|-----6----|

  03:08
G:|----------|----------|
D:|----------|----------|
A:|-0----7---|-0----6---|
E:|----------|-----6----|

  03:10
G:|----------|----------| x3
D:|----------|----------|
A:|-0----7---|-0----6---|
E:|-----6----|-----6----|

  03:19                           03:24
G:|------------|-----------------||---------------| x6
D:|------------|-----------------||---------------|
A:|------------|-0-7-0-6-—-0-6-0-||-7-0-6--—0-6-0-|
E:|-5-5-5-5-0--|-----------------||---------------|

  03:40          03:42                  04:02
G:|-------------||--------|--------| x8 |---------|
D:|-------------||--------|--------|    |---------|
A:|-7-0-6---0-6-||0---7---|0---6---|    |-0-------|
E:|-------------||---6----|---6----|    |---------|
Este fichero es trabajo propio de su transcriptor y representa su interpretación personal de la canción. El material contenido en esta página es
para exclusivo uso privado, por lo que se prohibe su reproducción o retransmisión, así como su uso para fines comerciales.


© LaCuerda.net · Aviso Legal · Privacidad