Tablatura de Cristian Castro: Volver a Amar
Kike Santander
Mi Vida Sin Tu Amor
He exportado la partitura del programa GUITAR PRO, me podeis
mandar un e-mail para que os envíe el archivo en formato .gp5

Solo



      H.             E.    T   T      H          E    E  E  E
E||-------------------------------|-------------11b--11--9--7--|
B||--12~------------11b---12p-11h-|--12~-----------------------|
G||-------------------------------|----------------------------|
D||-------------------------------|----------------------------|
A||-------------------------------|----------------------------|
E||-------------------------------|----------------------------|


  Q.       S  S  S  S  S  S  S  S  S  S
--9~---------------------------------12-|
-------------------------11-11-12-14----|
-------------11-11-13-13----------------|
----------11----------------------------|
----------------------------------------|
----------------------------------------|


   E   T.  T   T  E  X E   Q     E.   T T
--12--11h-12p-11p-9--L-9b--9b----9---11-9-|
------------------------------------------|
------------------------------------------|
------------------------------------------|
------------------------------------------|
------------------------------------------|


|--7~--------L-------9-12-11-9-7-|
|--------------11-12-------------|
|--------------------------------|
|--------------------------------|
|--------------------------------|
|--------------------------------|


  S   Q.      S  T  T T  S  T  T  S  T T  S.T T
--7s~-9~------L---------------11-12----9----9-9-|
----------------------9----12-------12----------|
-------------------11---11---------------13-----|
----------------11------------------------------|
------------------------------------------------|
------------------------------------------------|


   Q.       E   S.  S. S  E   S  S     E    H.             E
--11~------11--11b-12-15-17--19-21-|--21b--21b~------------L--||
-----------------------------------|--------------------------||
-----------------------------------|--------------------------||
-----------------------------------|--------------------------||
-----------------------------------|--------------------------||
-----------------------------------|--------------------------||





Duration Legend
---------------
W - whole
H - half
Q - quarter
E - 8th
S - 16th
T - 32nd
X - 64th
. - note dotted
|-n-|  - n-tuplets


Tablature Legend
----------------
L - tied note
x - dead note
g - grace note
(n) - ghost note
> - accentuded note
NH - natural harmonic
AH - artificial harmonic
TH - tapped harmonic
SH - semi harmonic
PH - pitch harmonic
h - hammer on
p - pull off
b - bend
br - bendRelease
pb - preBend
pbr - preBendRelease
brb - bendReleaseBend
n/ - tremolo bar dip
n - tremolo bar dive
-/n - tremolo bar Release up
/n - tremolo bar inverted dip
/n - tremolo bar return
-n - tremolo bar Release down
S - shift slide
s - legato slide
/ -  slide into from below or out of upwards
 -  slide into from above or out of downwards
~ - vibrato
W - wide vibrato
tr - trill
TP - tremolo picking
T - tapping
S - slap
P - pop
< - fade in
^ - brush up
v - brush down
Este fichero es trabajo propio de su transcriptor y representa su interpretación personal de la canción. El material contenido en esta página es
para exclusivo uso privado, por lo que se prohibe su reproducción o retransmisión, así como su uso para fines comerciales.
© LaCuerda.net · aviso legal · privacidad · contacto