Acordes de Guitarra » C »Coros Unidos » El me ha dado la paz (Tab)

El me ha dado la paz
Coros Unidos

Letras, Acordes y Tabs para Guitarra, Bajo y Ukulele

  • C*               Em                      A7
    el me ha dado la paz   (el me ha dado la paz)
                    D
    salvacion y perdon     (salvacion y perdon)
    C*            Em                        A7
    y una dulce quietud    (y una dulce quietud)
                     D      D7
    que ya inunda mi ser
    
    
    coro:
                        G     A           F#m     Bm
    //y es por eso que canto con un gozo sublime
                 G     A            D      D7
    al amor que redime de mi señor jesus//
    
    
    C*              Em                      A7
    el me da proteccion    (el me da proteccion)
                    D
    
  • primer parrafo:
    
    E--2-3-5-3-2-0----0-2-3-2-0-2----2-3-5-3-2-0----0-2-3-2-0-----------
    B---------------------------------------------------------3---------
    G-------------------------------------------------------------------
    D-------------------------------------------------------------------
    A-------------------------------------------------------------------
    E-------------------------------------------------------------------
    
    coro:  (se repite 2 veces)
    E------------10-10-7-9-10-9-7-9-9-5-7-9-7-5-7-7-3-5-7-5-3-5-3-5-3-2-
    B--3-3-3-3-3--------------------------------------------------------
    G-------------------------------------------------------------------
    D-------------------------------------------------------------------
    A-------------------------------------------------------------------
    E-------------------------------------------------------------------
    
    segundo parrafo
    
    E--2-3-5-3-2-0----0-2-3-2-0-2----2-3-5-3-2-0----0-2-3-2-0-----------
    B---------------------------------------
  • +
    ¡Colabora con nosotros!
    Envíanos tu versión de esta canción

Letra de El me ha dado la paz
el me ha dado la paz (el me ha dado la paz)
salvacion y perdon (salvacion y perdon)
y una dulce quietud (y una dulce quietud)
que ya inunda mi ser
//y es por eso que canto con un gozo sublime
al amor que redime de mi señor jesus//
el me da proteccion (el me da proteccion)
y me da de su amor (y me da de su amor)
y conmigo estara (y conmigo estara)
por la eternidad
//y es por eso que canto con un gozo sublime
al amor que redime de mi señor jesus//
TRASTES:
1 2 3




[El me ha dado la paz chords][El me ha dado la paz cifra]
© LaCuerda.net · aviso legal · privacidad · es · en · pt · contacto
DINAMICO